Jessie J - Who You Are tab

Jessie J- Who you are


This version (capo 2) is similar to other version but with a few alterations.
It is good for both picking and strumming.
The chords go well with jesse j youtube music video
http://www.youtube.com/watch?v=Q_pnFhFjNtY

NO CAPO..? scroll to the bottom

Capo 2:STANDARD TUNING

Chords:
Em7      Cadd9      G       Dsus4      Gmaj9 (no 3rd)
e|-3--|   e|-3--|   e|-3--|     e|-3--|    e|-3--|
B|-3--|   B|-3--|   B|-3--|     B|-3--|    B|-3--|
G|-0--|   G|-2--|   G|-0--|     G|-2--|    G|-2--|
D|-2--|   D|-0--|   D|-0--|     D|-2--|    D|-0--|
A|-2--|   A|-3--|   A|-2--|     A|-0--|    A|-0--|
E|----|   E|----|   E|-3--|     E|----|    E|-2--|



STRUMMING
Play muted down strums BUT a VERY fun/different strumming pattern is the one played in this
cover: http://www.youtube.com/watch?v=jXqDMeeWwIc

using these chords:
Em7  Cadd9   G   Dsus4  x2
Em7  Cadd9   G   Gmaj9


PICKING

  Em7 	        Cadd9           G 				   Dsus4        x2
e|------------------------------------------------------------------|
B|------------------------------------------------------------------|
G|-0---0---0---0---2---2---2---2---0---0---0---0---0---0---2---2----|
D|-2---2---2---2---0---0---0---0---0---0---0---0---0---0---2---2----|
A|-2---2---2---2---3---3---3---3---------------------------0---0----|
E|---------------------------------3---3---3---3---3---3------------|

   Em7 	         Cadd9          G 	             Gmaj9
e|------------------------------------------------------------------|
B|------------------------------------------------------------------|
G|-0---0---0---0---2---2---2---2---0---0---0---0---2---2---2---2----|
D|-2---2---2---2---0---0---0---0---0---0---0---0---0---0---0---0----|
A|-2---2---2---2---3---3---3---3------------------------------------|
E|---------------------------------3---3---3---3---2---2---2---2----|


Repeat throughout song
******************************************************************

THE CAPO-less

If you do not want/have a capo try: h
ttp://www.youtube.com/watch?v=VsKZ3QHZR3g this is similar/better version of version 1.

For those that do nOt fully understand the
video linked above, here is the tablature for that.
It is fairly simple as well BUT is not really ‘strum’ friendly?
(it may not be a 100% cause only watched the first few seconds of the video and
got the just of it)....
so ALL credit goes to whoever posted it :)

e|---------------------------------------------------------------|
B|----------0-0-0-0---------------3-3-----------0-0-0-0----------|
G|-2-2-2-2--2-2-2-2--2-2-2-2-2-2--2-2--2-2-2-2--2-2-2-2--2-2-2-2-|
D|-2-2-2-2--0-0-0-0--2-2-2-2-2-2--0-0--2-2-2-2--0-0-0-0--2-2-2-2-|
A|---------------------------------------------------------------|
E|---------------------------------------------------------------|

e|-------------|
B|-0-0-0-0-----|
G|-1-1-1-1/2---| repeat throughout song
D|-2-2-2-2-----|
A|-------------|
E|-------------|
Tap to rate this tab
 
# A B C D E F G H I J K L M N O P Q R S T U V W X Y Z