Song name
# A B C D E F G H I J K L M N O P Q R S T U V W X Y Z

Jessie J - Who You Are tab

this is my first tab so it might not be perfect. L.O.V.E this song and i L.O.V.E Jessie J.

e/------------------------------------------------------|
B/------------------------------------------------------|
G/-2-2-2-2--4-4-4-4--2-2-2-2-2-2--4-4--2-2-2-2--4-4-4-4-|
D/-2-2-2-2--0-0-0-0--2-2-2-2-2-2--0-0--0-0-0-0--0-0-0-0-|
C/-0-0-0-0--0-0-0-0--0-0-0-0-0-0--0-0--0-0-0-0--0-0-0-0-|
E/------------------------------------------------------|

e/------------------/   USE ALL THE WAY THROUGH THE
B/------------------/   APART FROM THE INSTRUMENTAL
G/-2-2-2-2-2-2--1-1-/   SOLO AND BUILD UP TO THE
D/-2-2-2-2-2-2--2-2-/   FINAL CHORUS.
C/-0-0-0-0-0-0--0-0-/
E/------------------/

INSTRUMENTAL SOLO

e/-----9-----9-----9-----9-----9-|
B/---7-----7-----7-----7-----7---|
G/-9-----9-----9-----9-----9-----|
D/-------------------------------|
C/-------------------------------|
E/-------------------------------|

THANX
Tap to rate this tab
 
# A B C D E F G H I J K L M N O P Q R S T U V W X Y Z