Guitaretab - guitar tabs
Song name
# A B C D E F G H I J K L M N O P Q R S T U V W X Y Z

Jessie J - Domino tab

intro 2x

d = down
u = up
m/mute = dont let ring

strumming = d-d-m-u-m-u-m-u-d-u-d

e|--------3--------|--------3--------||
B|--------3--------|--------5--------||
G|--------4--------|--------5--------||
D|--------5--------|--------5--------||
A|--------5--------|--------3--------||
E|--------3--------|--------0--------||
          G                 C
 at the end slide the whole C until stringA gets to 7th freth

verse

same as the intro
every end strum in mute 
then slide C again
if you want you can change it whatever you prefer

bridge

e|--------8--------|--------3--------|--------7--------|--------5--------||
B|--------8--------|--------3--------|--------8--------|--------5--------||
G|--------9--------|--------3--------|--------7--------|--------6--------||
D|--------10-------|--------4--------|--------9--------|--------7--------||
A|--------10-------|--------5--------|--------7--------|--------7--------||
E|--------8--------|--------3--------|--------0--------|--------5--------||
          C                 G7                E7                A

same strumming but D should be strummed down once then mute


chorus

e|--------3--------|--------0--------|--------0--------|--------0--------||
B|--------3--------|--------1--------|--------0--------|--------1--------||
G|--------0--------|--------2--------|--------0--------|--------0--------||
D|--------2--------|--------2--------|--------2--------|--------2--------||
A|--------3--------|--------0--------|--------2--------|--------3--------||
E|--------0--------|--------0--------|--------0--------|--------0--------||
          C9                Am                Em                C

same strumming but no mute

[ Tab from: http://www.guitaretab.com/j/jessie-j/312516.html ]
last bridge before outro

before playing this part "Ooh baby baby got me feeling so right"
play this 2x

e|--------0--------|--------0--------|--------7--------|--------5--------||
B|--------8--------|--------5--------|--------8--------|--------5--------||
G|--------9--------|--------6--------|--------7--------|--------6--------||
D|--------10-------|--------7--------|--------9--------|--------7--------||
A|--------10-------|--------7--------|--------7--------|--------7--------||
E|--------0--------|--------0--------|--------0--------|--------5--------||


then the "Ooh baby baby got me feeling so right"

e|--------8--------|--------3--------|--------7--------|--------5--------||
B|--------8--------|--------3--------|--------8--------|--------5--------||
G|--------9--------|--------3--------|--------7--------|--------6--------||
D|--------10-------|--------4--------|--------9--------|--------7--------||
A|--------10-------|--------5--------|--------7--------|--------7--------||
E|--------8--------|--------3--------|--------0--------|--------5--------||
          C                 G7                E7                A

then lastly the chorus

e|--------3--------|--------0--------|--------0--------|--------0--------||
B|--------3--------|--------1--------|--------0--------|--------1--------||
G|--------0--------|--------2--------|--------0--------|--------0--------||
D|--------2--------|--------2--------|--------2--------|--------2--------||
A|--------3--------|--------0--------|--------2--------|--------3--------||
E|--------0--------|--------0--------|--------0--------|--------0--------||
          C9                Am                Em                C

there you go!!!!!!!

mail me
rv_suguitan@yahoo.com
Related for Domino tab
Domino chords by Jessie J