Song name
# A B C D E F G H I J K L M N O P Q R S T U V W X Y Z

Jessie J - Abracadabra tab

There were no tabs to this song so i thought i'd do it, seeing as it's only two chords (:

Standard Tuning

Intro: x1 (play second measure only)
e-----------------------------------|
B-13--13-------x-x-x---13--13-13-13-|
G-12--12--12---x-x-x---12--12-12-12-|
D-10--10--x----x-x-x---10--10-10-10-|
A---------10---x-x-x----------------|
E-----------------------------------|

Verse:
No Guitar

Pre-Chorus: x4
e-----------------------------------|
B-13--13-------x-x-x---13--13-13-13-|
G-12--12--12---x-x-x---12--12-12-12-|
D-10--10--x----x-x-x---10--10-10-10-|
A---------10---x-x-x----------------|
E-----------------------------------|

Chorus: x8
e-----------------------------------|
B-13--13-------x-x-x---13--13-13-13-|
G-12--12--12---x-x-x---12--12-12-12-|
D-10--10--x----x-x-x---10--10-10-10-|
A---------10---x-x-x----------------|
E-----------------------------------|

Verse:
No Guitar

Pre-Chorus: x4
e-----------------------------------|
B-13--13-------x-x-x---13--13-13-13-|
G-12--12--12---x-x-x---12--12-12-12-|
D-10--10--x----x-x-x---10--10-10-10-|
A---------10---x-x-x----------------|
E-----------------------------------|

Chorus: x8
e-----------------------------------|
B-13--13-------x-x-x---13--13-13-13-|
G-12--12--12---x-x-x---12--12-12-12-|
D-10--10--x----x-x-x---10--10-10-10-|
A---------10---x-x-x----------------|
E-----------------------------------|

Bridge: x2 (last two measures only)
e-----------------------------------|
B-13--13-------x-x-x---13--13-13-13-|
G-12--12--12---x-x-x---12--12-12-12-|
D-10--10--x----x-x-x---10--10-10-10-|
A---------10---x-x-x----------------|
E-----------------------------------|

Chorus: x8
e-----------------------------------|
B-13--13-------x-x-x---13--13-13-13-|
G-12--12--12---x-x-x---12--12-12-12-|
D-10--10--x----x-x-x---10--10-10-10-|
A---------10---x-x-x----------------|
E-----------------------------------|

Outro: x4 (fades out)
e-----------------------------------|
B-13--13-------x-x-x---13--13-13-13-|
G-12--12--12---x-x-x---12--12-12-12-|
D-10--10--x----x-x-x---10--10-10-10-|
A---------10---x-x-x----------------|
E-----------------------------------|
Tap to rate this tab
# A B C D E F G H I J K L M N O P Q R S T U V W X Y Z