Song name
# A B C D E F G H I J K L M N O P Q R S T U V W X Y Z

Jessie James - Who You Are chords

Highlighted       Show chord diagrams
this song is played:
no sTrUming
just 3 fingers in every ploted string

and just follow the tablature 

chords to use:
   A        D        A       Bm              E
e|----|  e|----|         e|--------|     e|----|
B|----|  B|--0-|         B|--3---3-|     B|----|
G|--2-|  G|--2-|         G|--4---4-|     G|--1-|
D|--2-|  D|--0-|         D|------4-|     D|--2-|
A|--0-|  A|----|         A|--2-----|     A|----|
E|----|  E|----|         E|--------|     E|--0-|


then this is how it goes
intro: 
      A     D        A     Bm    A       D      A        E
e|-------|------|--------|----|-------|------|--------|----------|
B|-------|-0000-|--------|-33-|-------|-0000-|--------|----------|
G|--2222-|-2222-|-222222-|-44-|--2222-|-2222-|-222222-|--11------|
D|--2222-|-0000-|-222222-|--4-|--2222-|-0000-|-222222-|--22------|
A|--0000-|------|-000000-|-2--|--0000-|------|-000000-|----------|
E|-------|------|--------|----|-------|------|--------|--00------|



verse 1
     A       D      A      Bm     A      D       A       Bm 
e|-------|------|--------|----|-------|------|--------|---------|
B|-------|-0000-|--------|-33-|-------|-0000-|--------|--34-----|
G|--2222-|-2222-|-222222-|-44-|--2222-|-2222-|-222222-|--44-----|
D|--2222-|-0000-|-222222-|--4-|--2222-|-0000-|-222222-|---4-----|
A|--0000-|------|-000000-|-2--|--0000-|------|-000000-|--2------|
E|-------|------|--------|----|-------|------|--------|---------|

     A      D      A       E       A      D       A      Bm
e|-------|------|------|-------|-------|------|--------|--------|
B|-------|-0000-|------|-------|-------|-0000-|--------|-33-----|
G|--2222-|-2222-|-2222-|--1111-|--2222-|-2222-|-222222-|-44-----|
D|--2222-|-0000-|-2222-|--2222-|--2222-|-0000-|-222222-|--4-----|
A|--0000-|------|-0000-|-------|--0000-|------|-000000-|-2------|
E|-------|------|------|--0000-|-------|------|--------|--------|



Chorus:
     A      D       A      E     A      D       A      E
e|-------|------|--------|----|------|------|--------|----------|
B|-------|-0000-|--------|----|------|-0000-|--------|----------|
G|--2222-|-2222-|-222222-|-11-|-2222-|-2222-|-222222-|-11-------|
D|--2222-|-0000-|-222222-|-22-|-2222-|-0000-|-222222-|-22-------|
A|--0000-|------|-000000-|----|-0000-|------|-000000-|----------|
E|-------|------|--------|-00-|------|------|--------|-00-------|

     A      D       A      E     A      D       A      E
e|-------|------|--------|----|------|------|--------|----------|
B|-------|-0000-|--------|----|------|-0000-|--------|----------|
G|--2222-|-2222-|-222222-|-11-|-2222-|-2222-|-222222-|-11-------|
D|--2222-|-0000-|-222222-|-22-|-2222-|-0000-|-222222-|-22-------|
A|--0000-|------|-000000-|----|-0000-|------|-000000-|----------|
E|-------|------|--------|-00-|------|------|--------|-00-------|

     A      D       A      E     A      D       A      E
e|-------|------|--------|----|------|------|--------|----------|
B|-------|-0000-|--------|----|------|-0000-|--------|----------|
G|--2222-|-2222-|-222222-|-11-|-2222-|-2222-|-222222-|-11-------|
D|--2222-|-0000-|-222222-|-22-|-2222-|-0000-|-222222-|-22-------|
A|--0000-|------|-000000-|----|-0000-|------|-000000-|----------|
E|-------|------|--------|-00-|------|------|--------|-00-------|

     A      D       A      E     A      D       A      E
e|-------|------|--------|----|------|------|--------|----------|
B|-------|-0000-|--------|----|------|-0000-|--------|----------|
G|--2222-|-2222-|-222222-|-11-|-2222-|-2222-|-222222-|-11-------|
D|--2222-|-0000-|-222222-|-22-|-2222-|-0000-|-222222-|-22-------|
A|--0000-|------|-000000-|----|-0000-|------|-000000-|----------|
E|-------|------|--------|-00-|------|------|--------|-00-------|

verse 2
     A      D       A      Bm     A      D       A       Bm 
e|-------|------|--------|----|-------|------|--------|---------|
B|-------|-0000-|--------|-33-|-------|-0000-|--------|--34-----|
G|--2222-|-2222-|-222222-|-44-|--2222-|-2222-|-222222-|--44-----|
D|--2222-|-0000-|-222222-|--4-|--2222-|-0000-|-222222-|---4-----|
A|--0000-|------|-000000-|-2--|--0000-|------|-000000-|--2------|
E|-------|------|--------|----|-------|------|--------|---------|

     A      D      A      E      A      D       A      Bm
e|-------|------|------|-----|-------|------|--------|----------|
B|-------|-0000-|------|--33-|-------|-0000-|--------|-33-------|
G|--2222-|-2222-|-2222-|--44-|--2222-|-2222-|-222222-|-44-------|
D|--2222-|-0000-|-2222-|---4-|--2222-|-0000-|-222222-|--4-------|
A|--0000-|------|-0000-|--2--|--0000-|------|-000000-|-2--------|
E|-------|------|------|-----|-------|------|--------|----------|
Tap to rate this tab
 
# A B C D E F G H I J K L M N O P Q R S T U V W X Y Z