Song name
# A B C D E F G H I J K L M N O P Q R S T U V W X Y Z

Jesu - Opiate Sun tab

Artist: Jesu
Song: Opiate Sun
Album: Opiate Sun EP

Tuning: AEADGBe (dropped A)

Justin Broadrick uses a 7 string but the same sound can be achieved by
restringing a 6 string with the lower 6 strings of a 7 string set.

He also layers several guitar parts on the recordings. I've only tabbed the
most obvious parts. Further embelishments can be worked out by the player.

The chords are played by one guitar and the single notes/twiddly bits by
a second (or third or fourth...) but I have tabbed them together to save
space. They should be easy to separate if need be.

Intro/Verse/Chorus

  G                                  E               C
  1   +   2   +   3   +   4   +      1   +   2   +   3   +   4   +
e----------------------------------|----------------------------------|
B----------------------------------|----------------------------------|
G----------------------------------|-------------------------4--------|
D----------------------------------|---------9-------------------5----|
A-10------10--10--10h12-10----10---|-7-----------10--3----------------|
E-10------10--10--10------14--10---|-7---------------3----------------|
A-10------10--10-------------------|-7---------------3----------------|

  D                                  E               C
  1   +   2   +   3   +   4   +      1   +   2   +   3   +   4   +
e----------------------------------|----------------------------------|
B----------------------------------|----------------------------------|
G----------------------------------|-------------------------4--------|
D-----------------5-h7-5------5----|---------9-------------------5----|
A-5------5----5---5-------9---5----|-7-----------10--3----------------|
E-5------5----5--------------------|-7---------------3----------------|
A-5------5----5--------------------|-7---------------3----------------|

Bridge

  E                  G                  C                  D
  1 + 2 + 3 + 4 +    1 + 2 + 3 + 4 +    1 + 2 + 3 + 4 +    1 + 2 + 3 + 4 +
e------------------|------------------|------------------|------------------|
B------------------|------------------|------------------|------------------|
G------------------|------------------|------------------|-------------7----|
D-------7-----7----|------------------|-----5-7---5-7-5--|-----5-7---5---5--|
A-7---10----10--10-|-10--1012--101210-|-3----------------|-5----------------|
E-7----------------|-10---------------|-3----------------|-5----------------|
A-7----------------|-10---------------|-3----------------|-5----------------|

  E                  G                  C                  B
  1 + 2 + 3 + 4 +    1 + 2 + 3 + 4 +    1 + 2 + 3 + 4 +    1 + 2 + 3 + 4 +
e------------------|------------------|------------------|------------------|
B------------------|------------------|------------------|-------------3----|
G------------------|------------------|------------------|-------2-------2--|
D-------7-----7----|------------------|-----5-7---5-7-5--|-----5-----5------|
A-7---10----10--10-|-10--1012--101210-|-3----------------|-2----------------|
E-7----------------|-10---------------|-3----------------|-2----------------|
A-7----------------|-10---------------|-3----------------|-2----------------|

Break

  G
e------------------
B------------------
G------------------
D------------------
A-10---------------
E-10---------------
A-10---------------


Outro
  A                  C                  D                  D
  1 + 2 + 3 + 4 +    1 + 2 + 3 + 4 +    1 + 2 + 3 + 4 +    1 + 2 + 3 + 4 +
e------------------|------------------|------------------|------------------|
B------------------|------------------|------------------|------------------|
G-------4----------|-------4----------|------------------|------------------|
D-----------5------|-----------5------|-------7---5------|-------7---5------|
A-0----------------|-3----------------|-5----------------|-5----------------|
E-0----------------|-3----------------|-5----------------|-5----------------|
A-0----------------|-3----------------|-5----------------|-5----------------|

  A                  C                  D                  D
  1 + 2 + 3 + 4 +    1 + 2 + 3 + 4 +    1 + 2 + 3 + 4 +    1 + 2 + 3 + 4 +
e------------------|------------------|------------------|------------------|
B------------------|------------------|------------------|------------------|
G------------------|------------------|------------------|-------------7----|
D-------5----------|-------5----------|-----5-7---5------|-----5-7---5---5--|
A-0---------3------|-3---------3------|-5----------------|-5----------------|
E-0----------------|-3----------------|-5----------------|-5----------------|
A-0----------------|-3----------------|-5----------------|-5----------------|

Tabbed by Aleks
www.facebook.com/hesychasmsa
www.youtube.com/crystalred333
Tap to rate this tab
# A B C D E F G H I J K L M N O P Q R S T U V W X Y Z