Song name
# A B C D E F G H I J K L M N O P Q R S T U V W X Y Z

Jesu - Old Year tab

Drop D tuning = DADGBE


GUITAR 1 - INTRO (FOLLOWED BY GUITAR 2, SAME RHYTHM FOR VERSE)
E---------------------------------------------------|
B---------------------------------------------------|
G---------------------------------------------------|
D---------------------------------------------------|
A--3--3--3--3-3--3-3--3--3--3--3--3--3-3--3-3--3--3-|
D--0--0--0--0-0--0-0--2--2--3--3--3--3-3--3-3--5--5-|

CHORUS - (NOT SURE IF THIS IS RIGHT, BUT IT SOUNDS OK)
E---------------------------------------------|
B---------------------------------------------|
G---------------------------------------------|
D---------------------------------------------|
A-5-5-7--9-9-10--0-0--0-0--3-3--3-3--0-0--0-0-|
D-5-5-7--9-9-10--0-0--0-0--3-3--3-3--0-0--0-0-|

the chorus is played twice each time. the second time of each playing changes slightly. 
of F5 to D5 as the last 2 chords, it goes from F5 to E5 like so....

E---------------------|
B---------------------|
G---------------------|
D---------------------|
A--3-3--3-3--2-2--2-2-|
D--3-3--3-3--2-2--2-2-|

these riffs are just repeated.

http://www.avalancheinc.co.uk/jesumain.html
Tap to rate this tab
 
# A B C D E F G H I J K L M N O P Q R S T U V W X Y Z