Song name
# A B C D E F G H I J K L M N O P Q R S T U V W X Y Z

Jesus Adrian Romero - Cuenta Conmigo tab

intro:
e|---------------------------------------------------------------------------|
B|------1------1----------1------1----------1------1----------1--------------|
G|----1------1---1------0------0---0------1------1---1------0-----3/4-1-3-1--|
D|--3------3-------3--1------1-------1--3------3-------3--1------------------|
A|---------------------------------------------------------------------------|
E|---------------------------------------------------------------------------|

e|---------------------------------------------------------------------------|
B|----1---1---1---1----1---1-1h2-1-1-0-1----1---1---1---1----1---1--1--------|
G|------3-------3--------3--------------------3-------3--------3------3-3-1-3|
D|--3-------3--------2--------------------3-------3--------2-----------------|
A|---------------------------------------------------------------------------|
E|---------------------------------------------------------------------------|

verses & chorus:
Fm  C  Fm  C  Bm7  C
Tap to rate this tab
# A B C D E F G H I J K L M N O P Q R S T U V W X Y Z