Song name
# A B C D E F G H I J K L M N O P Q R S T U V W X Y Z

Jesus Adrian Romero - No Es Como Yo tab

Chords:

    Aadd2      F#m7       D   C#m7       A  Esus4
E|----0----0----0---------2-------------------0----|
B|----2---------0----0----3----5----3----2----0----|
G|----2----4----2----1----2----4----2----2----2----|
D|----2----2----2----2----0----6----4----2----2----|
A|----0--------------2---------4----2----0----2----|
E|---------4----2----0-----------------------------|
         E/G#        E             Bm7

    C#sus4     A#m/F      D7  A/C#
E|------------------------5---------2----|
B|----7----2----2----3----7----2----2----|
G|----4----3----1----2----6----2----2----|
D|----6----3----3----0----7----2----4----|
A|----4----1--------------5----4----0----|
E|---------1----1----2--------------2----|
         A#7/F      D/F#           F#m

Song Order:
Intro
Verse 1
Verse 2
Verse 3
Chorus
Verse 1
Verse 2
Verse 3
Chorus
Solo
Chorus
Intro

Intro:(0:00-0:23)

(Guitar 2)

      Aadd2         E/G#       F#m7         E
E|-----------------------0-------------------------|
B|-----------2-----------------------0---------0---|
G|--------4-----------4-----------2----------1-----|
D|-----2-----------2-----------2-----------2-------|
A|--0----------------------------------------------|
E|--------------4-----------2-----------0----------|

       D            C#m7         Bm7        A          Esus4             E
E|-----------2--------------------------------------------------0--------0--|
B|--------3--------------5-----------3-----------2-----------0-----0-----0--|
G|-----2--------------4-----------2-----------2-----------2-----------2--1--|
D|--0--------------6-----------4-----------2-----------2-----------------2--|
A|--------------4-----------2-----------0-----------2--------------------2--|
E|--------------------------------------------------------------------------|

(Guitar 1)
E|-----5--4--5~--7--7--5--5h7p5--4--4--5-------|
B|--5-------------------------------------5/7--|
G|---------------------------------------------|
D|---------------------------------------------|
A|---------------------------------------------|
E|---------------------------------------------|

E|--7--7--5--5h7p5--4--4--5--------------------5----------|
B|---------------------------5/7--5/3/5--5--5-----5/3/5---|
G|--------------------------------------------------------|
D|--------------------------------------------------------|
A|--------------------------------------------------------|
E|--------------------------------------------------------|

E|-----------------------------------------|
B|--3p2h3--2--2h3p2--------------5---------|
G|-------------------4--2--2/4~-----4/2/1--|
D|-----------------------------------------|
A|-----------------------------------------|
E|-----------------------------------------|


Verse 1:(0:25-0:42)

(Guitar 1)

     Aadd         E/G#          F#m7             E
E|-----------------------0---------------0--------------|
B|-----------2-----------------------0---------------0--|
G|--------4-----------4-----------2---------------1-----|
D|-----2-----------2-----------2---------------2--------|
A|--0---------------------------------------------------|
E|--------------4-----------2---------------0-----------|

        D                          Bm7          Esus4            E
E|-----------0--2--0h2p0--------------------------------0--------0--|
B|--------3---------------3--------------3-----------0-----0-----0--|
G|-----2---------------------2--------2-----------2-----------2--1--|
D|--0------------------------------0-----------2-----------------2--|
A|------------------------------2-----------2--------------------2--|
E|------------------------------------------------------------------|

Verse 2:(0:44-0:58)

(Guitar 1)
     Aadd          E/G#         F#m7            E
E|-----------------------0--------------0--------------|
B|-----------2-----------------------0--------------0--|
G|--------4-----------4-----------2--------------1-----|
D|-----2-----------2-----------2--------------2--------|
A|--0--------------------------------------------------|
E|--------------4-----------2--------------0-----------|

       D                           Bm7
E|-----------0--2--0h2p0--------------------|
B|--------3---------------3--------------3--|
G|-----2---------------------2--------2-----|
D|--0------------------------------0--------|
A|------------------------------2-----------|
E|------------------------------------------|


Verse 3:(0:59-1:17)

(Guitar 1)
     C#m7                                   C#sus4       C#m7
E|-----------------------------------------------------------|
B|--5--------5--------5--5--------5--------5--7--------7--5--|
G|-----4--------4-----------4--------4-----------4--------4--|
D|--------6--------6-----------6--------6-----------6-----6--|
A|--------------------------------------------4-----------4--|
E|-----------------------------------------------------------|

  A#7/F  A#m7/F  F#m      D/F#   D
E|---------------------------------------------0-5-7/4-4-|
B|-3-----3-2-2-----2-------3-----3-----------3-----------|
G|---1-----1---2-----2---2---2-----2---2---2-----6-7/4-4-|
D|-----4---3-----4-----4-------0-----0---0---------------|
A|-------------------------------------------------------|
E|-1-------1-2-------------2-----------------------------|
            F#m

Chorus:(1:18-1:55)

(Guitar 1)
       Aadd2         E/G#          F#m7            C#m7     D7
 E|--------------0-----------0--------------0--------------4------------|
B|-----------2--------------------------0--------------5-----7----------|
G|--------4--------------4-----------2--------------4-----------6-------|
D|-----2--------------2-----------2--------------6-----------------7----|
A|--0-----------------------------------------4--------------5----------|
E|-----------------4-----------2----------------------------------------|

               Bm7          E           D           A/C#        E
E|--5--------------------2--0--------0--2--------2-----------------|
B|-----7--------3--------------0-----------3--------2--------2--0--|
G|--------6--------2--------------1-----------2--------2--------1--|
D|-----------7--------4-----------------0-----------------2-----2--|
A|--------------2-----------------------------------4--------------|
E|--------------------------0-----------------------------------0--|

      Aadd2           E/G#       A#m7/F         F#m            C#m7
E|--------------0-----------0--------------------------2--------------4--|
B|-----------2--------------------------2-----------2--------------5-----|
G|--------4--------------4-----------1-----------2--------------4--------|
D|-----2--------------2-----------3-----------4--------------6-----------|
A|--0-----------------------------------------------------4--------------|
E|-----------------4-----------1-----------2-----------------------------|

    D7          Bm7         D
E|-----------5--2--------2-----------0--5--7/4--4----|
B|--7--------------3--------------3------------------|
G|-----6--------------2--------2--------6--7/4--4----|
D|--------7-----------------0------------------------|
A|--5-----------2------------------------------------|
E|---------------------------------------------------|


Verse 1:(1:57-2:14)

(Guitar 1)
      Aadd         E/G#          F#m7             E
E|-----------------------0---------------0--------------|
B|-----------2-----------------------0---------------0--|
G|--------4-----------4-----------2---------------1-----|
D|-----2-----------2-----------2---------------2--------|
A|--0---------------------------------------------------|
E|--------------4-----------2---------------0-----------|
        D                          Bm7          Esus4            E
E|-----------0--2--0h2p0--------------------------------0--------0--|
B|--------3---------------3--------------3-----------0-----0-----0--|
G|-----2---------------------2--------2-----------2-----------2--1--|
D|--0------------------------------0-----------2-----------------2--|
A|------------------------------2-----------2--------------------2--|
E|------------------------------------------------------------------|


Verse 2:(2:16-2:30)

(Guitar 1)
     Aadd          E/G#         F#m7            E
E|-----------------------0--------------0--------------|
B|-----------2-----------------------0--------------0--|
G|--------4-----------4-----------2--------------1-----|
D|-----2-----------2-----------2--------------2--------|
A|--0--------------------------------------------------|
E|--------------4-----------2--------------0-----------|
       D                           Bm7
E|-----------0--2--0h2p0--------------------|
B|--------3---------------3--------------3--|
G|-----2---------------------2--------2-----|
D|--0------------------------------0--------|
A|------------------------------2-----------|
E|------------------------------------------|


Verse 3:(2:31-2:48)

(Guitar 1)
     C#m7                                   C#sus4       C#m7
E|-----------------------------------------------------------|
B|--5--------5--------5--5--------5--------5--7--------7--5--|
G|-----4--------4-----------4--------4-----------4--------4--|
D|--------6--------6-----------6--------6-----------6-----6--|
A|--------------------------------------------4-----------4--|
E|-----------------------------------------------------------|

  A#7/F  A#m7/F  F#m      D/F#   D
E|---------------------------------------------0-5-7/4-4-|
B|-3-----3-2-2-----2-------3-----3-----------3-----------|
G|---1-----1---2-----2---2---2-----2---2---2-----6-7/4-4-|
D|-----4---3-----4-----4-------0-----0---0---------------|
A|-------------------------------------------------------|
E|-1-------1-2-------------2-----------------------------|
            F#m


Chorus:(2:50-3:27)

(Guitar 1)
       Aadd2         E/G#          F#m7            C#m7     D7
 E|--------------0-----------0--------------0--------------4------------|
B|-----------2--------------------------0--------------5-----7----------|
G|--------4--------------4-----------2--------------4-----------6-------|
D|-----2--------------2-----------2--------------6-----------------7----|
A|--0-----------------------------------------4--------------5----------|
E|-----------------4-----------2----------------------------------------|

               Bm7          E           D           A/C#        E
E|--5--------------------2--0--------0--2--------2-----------------|
B|-----7--------3--------------0-----------3--------2--------2--0--|
G|--------6--------2--------------1-----------2--------2--------1--|
D|-----------7--------4-----------------0-----------------2-----2--|
A|--------------2-----------------------------------4--------------|
E|--------------------------0-----------------------------------0--|

      Aadd2           E/G#       A#m7/F         F#m            C#m7
E|--------------0-----------0--------------------------2--------------4--|
B|-----------2--------------------------2-----------2--------------5-----|
G|--------4--------------4-----------1-----------2--------------4--------|
D|-----2--------------2-----------3-----------4--------------6-----------|
A|--0-----------------------------------------------------4--------------|
E|-----------------4-----------1-----------2-----------------------------|

    D7          Bm7         D
E|-----------5--2--------2-----------0--5--7/4--4----|
B|--7--------------3--------------3------------------|
G|-----6--------------2--------2--------6--7/4--4----|
D|--------7-----------------0------------------------|
A|--5-----------2------------------------------------|
E|---------------------------------------------------|


Solo:(3:29-3:49)

(Guitar 2)
      D7          C#m7       E/G#       E  D  Bm7
E|-----------------------------------0--0--2--------------|
B|--7--------7-----------5--------------0--3--3-----------|
G|-----6--------------4-----------------1--2-----2-----2--|
D|--------7--------6--------------4-----2--0--------0-----|
A|--------------4--------------2--------2-----2-----------|
E|--------------------------4-----------------------------|

    E  D A/C#  Esus4 A/C#
E|--0--2-----0--0--------------|
B|--0--3--2--0--0--3--2--0--2--|
G|--1--2--2--1--2--2--2--1--2--|
D|--2--0--2--2--2--4--2--2--2--|
A|--2-----4--2--2--2--4-----0--|
E|-----------------------0-----|
             E    Bm7    E  A

(Guitar 1)
E|------------------------------------------------------------|
B|--7~--7--7--7--5--5h7p5--4--4h5--5--5--5--3--3h5p3--2--2h3--|
G|------------------------------------------------------------|
D|------------------------------------------------------------|
A|------------------------------------------------------------|
E|------------------------------------------------------------|

E|------------------------------------------------------------------------|
B|--3/5--5/7--2--0--------------------3--2h3p2----------------------------|
G|------------------2--2/4--2--2---2------------4--2--2~--4h6p4~--6h7p6~--|
D|------------------------------------------------------------------------|
A|------------------------------------------------------------------------|
E|------------------------------------------------------------------------|


Chorus:(3:50-4:25)

(Guitar 1)
       Aadd2         E/G#          F#m7            C#m7     D7
 E|--------------0-----------0--------------0--------------4------------|
B|-----------2--------------------------0--------------5-----7----------|
G|--------4--------------4-----------2--------------4-----------6-------|
D|-----2--------------2-----------2--------------6-----------------7----|
A|--0-----------------------------------------4--------------5----------|
E|-----------------4-----------2----------------------------------------|

               Bm7          E           D           A/C#        E
E|--5--------------------2--0--------0--2--------2-----------------|
B|-----7--------3--------------0-----------3--------2--------2--0--|
G|--------6--------2--------------1-----------2--------2--------1--|
D|-----------7--------4-----------------0-----------------2-----2--|
A|--------------2-----------------------------------4--------------|
E|--------------------------0-----------------------------------0--|

      Aadd2           E/G#       A#m7/F         F#m            C#m7
E|--------------0-----------0--------------------------2--------------4--|
B|-----------2--------------------------2-----------2--------------5-----|
G|--------4--------------4-----------1-----------2--------------4--------|
D|-----2--------------2-----------3-----------4--------------6-----------|
A|--0-----------------------------------------------------4--------------|
E|-----------------4-----------1-----------2-----------------------------|

    D7          Bm7         D
E|-----------5--2--------2-----------0--5--7/4--4----|
B|--7--------------3--------------3------------------|
G|-----6--------------2--------2--------6--7/4--4----|
D|--------7-----------------0------------------------|
A|--5-----------2------------------------------------|
E|---------------------------------------------------|


Intro:(4:27-4:48)

(Guitar 2)
      Aadd2         E/G#       F#m7         E
E|-----------------------0-------------------------|
B|-----------2-----------------------0---------0---|
G|--------4-----------4-----------2----------1-----|
D|-----2-----------2-----------2-----------2-------|
A|--0----------------------------------------------|
E|--------------4-----------2-----------0----------|
       D            C#m7         Bm7        A          Esus4             E
E|-----------2--------------------------------------------------0--------0--|
B|--------3--------------5-----------3-----------2-----------0-----0-----0--|
G|-----2--------------4-----------2-----------2-----------2-----------2--1--|
D|--0--------------6-----------4-----------2-----------2-----------------2--|
A|--------------4-----------2-----------0-----------2--------------------2--|
E|--------------------------------------------------------------------------|


(Guitar 1)
E|-----5--4--5~--7--7--5--5h7p5--4--4--5-------|
B|--5-------------------------------------5/7--|
G|---------------------------------------------|
D|---------------------------------------------|
A|---------------------------------------------|
E|---------------------------------------------|

E|--7--7--5--5h7p5--4--4--5--------------------5----------|
B|---------------------------5/7--5/3/5--5--5-----5/3/5---|
G|--------------------------------------------------------|
D|--------------------------------------------------------|
A|--------------------------------------------------------|
E|--------------------------------------------------------|

E|-----------------------------------------|
B|--3p2h3--2--2h3p2--------------5---------|
G|-------------------4--2--2/4~-----4/2/1--|
D|-----------------------------------------|
A|-----------------------------------------|
E|-----------------------------------------|

Legend:

h: hammer on
p: pull off
/: slide
~: vibrato
Tap to rate this tab
# A B C D E F G H I J K L M N O P Q R S T U V W X Y Z