Song name
# A B C D E F G H I J K L M N O P Q R S T U V W X Y Z

Jesus And Mary Chain - I Hate Rock And Roll tab

Highlighted       Show chord diagrams
I hate Rock and Roll - The Jesus and Mary Chain

From the album "Munki"


F# - E - C# - B5

E---2-x--4-x--7-7-7-7---------------777----------------------------|
B---2-x--4-x--7-7-7-7---------------777----------------------------|
G---3-x--5-x--8-8-8-8---------------888----------------------------|
D---4-x--6-x--9-9-9-9---------------999----------------------------|
A---4-x--6-x--9-9-9-9---------------999----------------------------|
E---2-0--4-0--7-7-7-7--(x2, then)---777-(ect.)---------------------|


verse:

bar chords:

F# - g# - b

I love rock 'n' roll
And all these people with no where to go
I love rock 'n' roll
All these people with nothing to show

I love the BBC
I love it when they're pissin' on me
And I love MTV
I love it when they're shittin' on me


then:

E-------4--7------------------------------------------------------|
B----7--x--x------------------------------------------------------|
G----x--1--4------------------------------------------------------|
D----4------------------------------------------------------------|
A-----------------------------------------------------------------|
E-----------------------------------------------------------------|


verse:


I hate rock 'n' roll
And all these people with nothing to show
I hate rock 'n' roll
I hate it cause its fucks with my soul

then:

E-------4--7------------------------------------------------------|
B----7--x--x------------------------------------------------------|
G----x--1--4------------------------------------------------------|
D----4------------------------------------------------------------|
A-----------------------------------------------------------------|
E-----------------------------------------------------------------|

solo chords: D, then A, then E, then B
the bass then repeats quarter note b's

then the guitar plays a power chord E like this:

E----------77-7--------------------------------------------------|
B----------99-9--------------------------------------------------|
G----------99-9--------------------------------------------------|
D----------99-9(bend chord)-------------------------999999999----|
A----------77-7-------------------------------------999999999----|
E------------------------------(8 bass b's, then)---777777777(10-| measures of this)

solo 2 chords: D, A, E, b, then


Rock 'n' roll hates me
b - F#
b - F#
b - F#
b - g# - b
Rock 'n' roll hates me,
I hate you rock 'n' roll

I hate (rock 'n' roll hates me)
F# - g# - b

I hate rock 'n' roll 'n' roll
F# - g# - b - b - b - b - F#


Notes:

The solo is pretty nuts, I'll try to tab it later
Tap to rate this tab
# A B C D E F G H I J K L M N O P Q R S T U V W X Y Z