Song name
# A B C D E F G H I J K L M N O P Q R S T U V W X Y Z

Jesus And Mary Chain - Happy Place chords

Highlighted       Show chord diagrams
Great song, i'll tab the solo later, hope you enjoy

Jesus and Mary Chain - Happy Place
From the album Barbed Wire Kisses

CAPO ON 2'ND FRET

Intro: (relative to capo)

--------------------------|
--------------------------|
4--2-----2-4--4-2-2----2--| x3
------4-------------4-----|
--------------------------|
--------------------------|

---------------------------|
---------------------------|
4--2--4--2-6--6-4-4-2-----2|
-----------------------4---|
---------------------------|
---------------------------|


A
I'm going back to a happy place
B
All my life I've lived to taste
D              E              A     E
Someone else's flavours on my tongue

A
Cherry take me back to the start of it all
      B
Where everyone's up then everyone falls
D             E                  A     E
Almost could destroy me with her kiss


A               B
Oh, I wish that I could feel
      D
And I feel too real
              A     E
For this grey moat
    A                B
And me, I'm drifting like the sun
        D                A     E
Down on everyone, the TV sky


A
Save me
         B
Come and save me
        D
Come on touch me
            E
Come on and touch me
        A
Come on hold me
            B
Come on and hold me


  D                 E                A    E
I live my life for something I can't see
D               E            A
Let me take you in my summer dream
Tap to rate this tab
# A B C D E F G H I J K L M N O P Q R S T U V W X Y Z