Song name
# A B C D E F G H I J K L M N O P Q R S T U V W X Y Z

Jesus And Mary Chain - Cherry Came Too tab

-------------------------------------------------------------------------------
			     Cherry Came Too - The Jesus and Mary Chain
-------------------------------------------------------------------------------
Tabbed by: DC
Email: 

You can find the chords to this song in another posted tab on this site.  Tabbed the solo by
ear and thought I would add it.  Like the song.  This is my first tab.  Think it's pretty accurate

Tuning: Standard

e|---------------------------------------------------------------------------|
B|--------------------------------------------------------4-4-6-4------------|
G|-----------------------------------------3-5-3-5-3-5-5-----------5--3--3---|
D|-----3-6-3---3--6-6-----3--6--3----3--6----------------------------------6-|
A|---6-------6----------6----------6-----------------------------------------|
E|---------------------------------------------------------------------------|

e|--------------4----4--4-6-4------------------------------------------------|
B|-4-6-4-6--4-6----6----------6--4-4-6------------4------------------4-4-6-6-|
G|-------------------------------------5--------5----5--3----3--5--3---------|
D|---------------------------------------6-6--6------------6-----------------|
A|---------------------------------------------------------------------------|
E|---------------------------------------------------------------------------|

e|--4-4----4---4--6-----------------------------------6-6-6-6---4-4----------|
B|------6----6--6---6-4--6--4-----------------4-4--6-------------------------|
G|----------------------------6-5------5-5--6--------------------------------|
D|--------------------------------6--6---------------------------------------|
A|---------------------------------------------------------------------------|
E|---------------------------------------------------------------------------|

| /  slide up
| \  slide down
| h  hammer-on
| p  pull-off
| ~  vibrato
| +  harmonic
| x  Mute note
===============================================================================


--------------

Tap to rate this tab
# A B C D E F G H I J K L M N O P Q R S T U V W X Y Z