Guitaretab - guitar tabs
Song name
# A B C D E F G H I J K L M N O P Q R S T U V W X Y Z

Jesus And Mary Chain - Head On tab

Head On by The Jesus and Mary Chain

Verse 1
C
As soon as I get my head round you
I come around catching sparks off you
I get an electric charge from you
A second hand living just won`t do

Riff A: Repeat at the end of verses 1 and 2
--------------------------------------------------------|
--------------------------------------------------------|
--4/54/5-4/5-4/5-4/5-4/5-4/5-4/5-----------------------|
--4/54/5-4/5-4/5-4/5-4/5-4/5-4/5-----------------------|
--2/32/3-2/3-2/3-2/3-2/3-2/3-2/3-----------------------|
--------------------------------------------------------|

Pre-Chorus 1
F                  G
And the way I feel tonight
C                         		 F
I could die and I wouldn`t mind
F                                 		G
And the theres something going on inside

Chorus
C
Makes you wanna feel, makes you wanna try
F                        		G
Makes you wanna blow the stars from the sky

Post Chorus 1
C
And I can`t stand up, I can`t cool down
F                              G                		C F G
I can`t get my head off the ground

Verse 2
C
As soon as I get my head round you
I come around catching sparks off you
And All I ever got from you 
Was all I ever took from you

Riff A

Pre Chorus
F                          G
And the world could die in pain
C                      F
And I wouldn`t feel no shame
F                            G
Theres nothing holding me to blame

Chorus
C
Makes you wanna feel, makes you wanna try
F                        G
Makes you wanna blow the stars from the sky

Post Chorus 2
	C		
And I`m taking myself to the dirty part of town
            F	                   G          C
Where all my troubles can be found


SOLO part one:
[ Tab from: http://www.guitaretab.com/j/jesus-and-mary-chain/9271.html ]
--------------------------------------------------------|
-------------------------5------------------------------|
-----5---5----5----5---7---------5---7-7----------------|
-5/7---7----7----7---7------5/7---7-----7-5-------------|
--------------------------------------------------------|
--------------------------------------------------------|

--------------------------------------------------------|
-------------------------5------------------------------|
-----5---5----5----5---7-----7/9-7-5--7/9-7-5-----------|
-5/7---7----7----7---7----------------------------------|
--------------------------------------------------------|
--------------------------------------------------------|

Bass Riff A: Repeat until part two and for the C chord in the rest of the song

---------------------------|
---------------------------|
--------3---3--------------|
--3--5----5----------------|

SOLO part two: repeat 2x
--------------------------------------------------------|
--------------------------------------------------------|
--------------------------------------------------------|
-------------------2-5----------------------------------|
-------3-3-3-5-3-5----------3-3-3--------2--------------|
---3-5--5---------------3-5--5---5-3-3-3----------------|


Chorus
C
Makes you wanna feel, makes you wanna try
F                        G
Makes you wanna blow the stars from the sky

Post Chorus 1
C
And I can`t stand up, I can`t cool down
F                   G                C F G
I can`t get my head off the ground

Chorus
C
Makes you wanna feel, makes you wanna try
F                        G
Makes you wanna blow the stars from the sky

Post Chorus 1
C
And I can`t stand up, I can`t cool down
F                   G                C F G
I can`t get my head off the ground

Bass Riff A: through this break and on the C until the end of the song 

C	F	G
I said yeah yeah, yeah yeah
Related for Head On tab