Song name
# A B C D E F G H I J K L M N O P Q R S T U V W X Y Z

Jesus And Mary Chain - Sometimes Always tab

From: ffm@werple.apana.org.au (John Fitzpatrick)
Subject: TAB: JESUS & MARY CHAIN "Sometimes Always"


I recently saw someone post a request for this and although I'm not a huge
Jesus and Mary Chain fan this one's quite a pretty little ditty and furthermore
it features the hauntingly beautiful voice of Hope Sandoval from Mazzy Star
anyway enuff of my rambling here it is:

SOMETIMES ALWAYS by Jesus and Mary Chain
 
Tune down 1/2 a step (Eb,Ab,Db,Gb,Bb,Eb)

Quite simple really just play this two chord progression

   D

E--2-2-2-2-2-2-2--0-0-0-0-0-0-0-0-
B--3-3-3-3-3-3-3--3-3-3-3-3-3-3-3
G--2-2-2-2-2-2-2--0-0-0-0-0-0-0-0-
D---------------------------------
A---------------------------------
E---------------------------------
 

then comes this catchy little riff

E----------------------------------------------------
B----------------------------------------------------
G-/4-2-2------------------------2-2------------------
D--------2b------2---2b-0---2/4-----2b------2---2b-0-
A-----------/5-5---5------5------------/5-5---5------
E----------------------------------------------------


E----------------------------------------------------------------------
B----------------------------------------------------3---3-5br-3----3~-
G---------------------------------------2-----2--2-4---4----------4----
D--2br-0---0-2-0-2--2br-0---0-2-0-2--/4---4-4--------------------------
A--------2----------------2--------------------------------------------
E----------------------------------------------------------------------


There it is, hope you enjoy it

Send comments, requests, or whatever to Anthony at: ffm@werple.apana.org.au

L8er
Tap to rate this tab
 
# A B C D E F G H I J K L M N O P Q R S T U V W X Y Z