Song name
# A B C D E F G H I J K L M N O P Q R S T U V W X Y Z

Jesus Culture - King Of Glory tab

I give God all the glory.

Email:dirtbikr_88@hotmail.com
Key:Dm


Intro:
Dm,C  
This riff gets repeated about four times.
e|------------------------------------------------------------------------|
B|------------------------------------------------------------------------|
G|-----------7-----9--5---------------------------------------------------|
D|---------------------------7--------------------------------------------|
A|------------------------------------------------------------------------|
E|------------------------------------------------------------------------|




Verse
Dm,A#,F,Am

Play power chords on the 5th and fourth strings
e|------------------------------------------------------------------------|
B|-------------6----10----------------------------------------------------|
G|---7----3----5----9-----------------------------------------------------|
D|---7----3----3----7-----------------------------------------------------|
A|---5----1---------------------------------------------------------------|
E|------------------------------------------------------------------------|
note-use some left hand mutes




Chorus
Dm,A#,C,Dm,A#,C,A
You kind of alternate pick back and forth, but with like a consistant mute 
with the left hand. 
If you cant get it just alternate pick or play chords.
e|------------------------------------------------------------------------|
B|-----10----------6-----------8-----------10----6----8----5--------------|
G|---7-----------3-----------5-----------7-----3----5----2----------------|
D|------------------------------------------------------------------------|
A|------------------------------------------------------------------------|
E|------------------------------------------------------------------------|
note-the exact amount to play is not give just order of notes
Tap to rate this tab
# A B C D E F G H I J K L M N O P Q R S T U V W X Y Z