Song name
# A B C D E F G H I J K L M N O P Q R S T U V W X Y Z

Jesus Culture - All Consuming Fire tab

Key:D

Important:Amount to play notes is not given merely order.
          Just my own way of playing it certainly not exactly like theirs.


Chords:D,A,E,F#m,Bm



Guitar:1
starts at about [00:45]
e|-----------------------------------------------------------------------|
B|---3----5--------------3----2------------------------------------------|
G|-------------------------------2---------------------------------------|x2
D|-----------------------------------------------------------------------|
A|-----------------------------------------------------------------------|
E|-----------------------------------------------------------------------|

Guitar:2
open chords on electric about [01:10] 

----------------------------------------------------------------------------


Guitar:1 [01:50]

e|-2--------9--------4---------------------------------------------------|
B|-3--------10-------5---------------------------------------------------|
G|-2--------9--------4---------------------------------------------------|
D|-----------------------------------------------------------------------|
A|-----------------------------------------------------------------------|
E|-----------------------------------------------------------------------|

Guitar:2 [1:50]
e|-----------------------------------------------------------------------|
B|-----------------------------------------------------------------------|
G|---7---------9---------------------------------------------------------|
D|---7----7----9---------------------------------------------------------|
A|---5----7----7---------------------------------------------------------|
E|--------5--------------------------------------------------------------|


----------------------------------------------------------------------------

~Chorus~

Guitar:1 at about [02:18]
Let us fall more in love with you riff I made
Just playing the root of the chord with some fill
e|-----------------------------------------------------------------------|
B|-3--2h3h5--------------------------------------------------------------|
G|------------2----------------------------------------------------------|
D|-----------------4h5p4--2----------------------------------------------|
A|-----------------------------------------------------------------------|
E|-----------------------------------------------------------------------|

Guitar:2 at about [02:17] same time as guitar 1
e|-2----9-----4----------------------------------------------------------|
B|-3----10----5----------------------------------------------------------|
G|-2----9-----4----------------------------------------------------------|
D|-----------------------------------------------------------------------|
A|-----------------------------------------------------------------------|
E|-----------------------------------------------------------------------|


----------------------------------------------------------------------------

~Bridge~

Guitar:1 [02:41] at the; We wanna know....
e|--14--14---------------------------------------------------------------|
B|-15--15----repeated----------------------------------------------------|
G|--------------------------14-------------------------------------------|
D|-------------------------------16--14----------------------------------|
A|-----------------------------------------------------------------------|
E|-----------------------------------------------------------------------|

Guitar:2 [02:41] at the; We wanna know....
e|-----------------------------------------------------------------------|
B|-----------------------------------------------------------------------|
G|-----7---14---11---9---------------------------------------------------|
D|-----x---x----x----x---------------------------------------------------|
A|-----5---12---9----7---------------------------------------------------|
E|-----------------------------------------------------------------------|

Tap to rate this tab
 
# A B C D E F G H I J K L M N O P Q R S T U V W X Y Z