Song name
# A B C D E F G H I J K L M N O P Q R S T U V W X Y Z

Jesus Culture - You Wont Relent tab

-----------------------------------------------------------------
You Won't Relent(Intro/Verse) - Jesus Culture
-----------------------------------------------------------------
Tabbed by:Paul
Email:pauljamilkowski@hotmail.com

Tuning: Standard(E-A-D-G-B-E)

       C#sus2             Asus2(Hold the C# 4 beats)             
e|------------------------------------------------|
B|------------4-5-4-------------0-2---------------|
G|----------6-------6---------2-------------------|
D|--------6-----------6-----2---------------------|
A|------4-----------------0-----------------------|
E|------------------------------------------------|
     E                  F#m7(Hold the E 4 beats)
e|------------------------------0------------------|
B|----------------------------0--------------------|
G|--------------------------2----------------------|
D|-------4/6---4---2-------------------------------|
A|-----2------------------4------------------------|
E|---0-------0---0---0--2--------------------------|



| /  slide up
| \  slide down
| h  hammer-on
| p  pull-off
| ~  vibrato
| +  harmonic
| x  Mute note
Tap to rate this tab
# A B C D E F G H I J K L M N O P Q R S T U V W X Y Z