Song name
# A B C D E F G H I J K L M N O P Q R S T U V W X Y Z

Jesus Culture - Come Away tab

Tuning: Standard (EADGBe)

| ~  let ring
| /  slide up
| .  palm-mute

I love how refreshingly different this song is. Here's how to play it:

[Intro] The timing is definitely weird in some of these parts. Be sure to listen 
to the song to get it down.
       ~Part 1~
e|---------------------------------|
B|------6~--6-5----------6~--8-5~--|
G|----5----------------5-----------| x2
D|--7-----------5~---7-------------|
A|---------------------------------|
E|---------------------------------|

       ~Part 2~
e|-----------------------------------------------|
B|-------6----6---5----5---5---1----1---1--------|
G|-----5----5---5----5---5---5----5---5-------5--|
D|--/7------------------------------------2~-----|
A|-----------------------------------------------|
E|-----------------------------------------------|

e|------------------------------------|
B|-------6--8-5---5---5---------------|
G|-----5--------5---5---5-4----4------|
D|--/7-----------------------5----5~--|
A|------------------------------------|
E|------------------------------------|

[Verse]
    Csus4   C        Am
e|-------------------------------------|
B|-------------------------------------|
G|-------------------------------------|
D|--5555555555555555-2222222222222222--|
A|--3333333333333333-0000000000000000--|
E|-------------------------------------|
    .................................

    F        C        G
e|--------------------------------------|
B|--------------------------------------|
G|----------------------7--7-7--7--7-7--|
D|--33333333-22222222-5555555555555555--|
A|--33333333-33333333-5555555555555555--|
E|--------------------------------------|
    ..................................

[Chorus] Electric plays Part 2 of the Intro; if you have an acoustic guitar, it can play this:

    Csus4     C         Am
e|--11111111--00000000--0000000000000000--|
B|--11111111--11111111--1111111111111111--|
G|--00000000--00000000--2222222222222222--|
D|--33333333--22222222--2222222222222222--|
A|--33333333--33333333--0000000000000000--|
E|----------------------------------------|

    F         C         G
e|--11111111--00000000--3333333333333333--|
B|--11111111--11111111--3333333333333333--|
G|--22222222--00000000--0000000000000000--|
D|--33333333--22222222--0000000000000000--|
A|--33333333--33333333--2222222222222222--|
E|--11111111------------3333333333333333--|

[Bridge]
e|--13-13-15---------------------|
B|-----------13~---13-13/15-15~--|
G|-------------------------------|
D|-------------------------------|
A|-------------------------------|
E|-------------------------------|

{Gtr 1} Electric guitar
    F         C         G
e|----------------------------------------|
B|----------------------------------------|
G|--55555555--55555555--------------------|
D|--33333333--55555555--5555555555555555--|
A|--33333333--33333333--5555555555555555--|
E|----------------------3333333333333333--|

{Gtr 2} Acoustic guitar
    F         C         G
e|--11111111--00000000--------------------|
B|--11111111--11111111--0000000000000000--|
G|--22222222--00000000--0000000000000000--|
D|--33333333--22222222--0000000000000000--|
A|--33333333--33333333--2222222222222222--|
E|--11111111------------3333333333333333--|

And that covers it! God bless. :)
Tap to rate this tab
# A B C D E F G H I J K L M N O P Q R S T U V W X Y Z