Jesus Culture - Rooftops tab

Tuning: Standard (EADGBe)

| h  hammer-on
| ~  let ring

[Intro]
e|------------------------------------12~----|
B|-------------------------------9h10-----9--|
G|------13~---9-11-13--9-----13~-------------|
D|--11~--------------------------------------|
A|-----------------------12~-----------------|
E|-------------------------------------------|

e|------------------------------------12~--------|
B|-------------------------------9h10-----9------|
G|------13~---9-11-13--9-----13~-----------------|
D|--11~-------------------------------------11~--|
A|-----------------------12~---------------------|
E|-----------------------------------------------|

[Verse]
C#m
    Here I am before you
B
Falling in love and seeking your truth
A
Knowing that your perfect grace
    B
Has brought me to this place
  C#m
Because of you I freely live
   B
My life to you, oh God, I give


[Pre-Chorus]
     F#m              C#m
So I stand before You God
  E                         B
I lift my voice because you set me free


[Chorus]
     E                            B
So I shout out your name from the rooftops I proclaim
	  C#m         A      F#m
That I am Yours, I am Yours


[Verse 2]
C#m
All the good You've done for me
  B
I lift up my hand up hand for all to see
           A
You're the only one 
    B
Who brings me to my knees
   C#m
To share this love across the earth
    B
The beauty of Your Holy Word


[Chorus 2]
     E                            B
So I shout out your name from the rooftops I proclaim
	  C#m         A 
That I am Yours, I am Yours
E                       B
All that I am I place into Your loving hands
         C#m         A      F#m
And I am Yours, I am Yours


[Bridge]
       E			  
Here I am, I stand with        arms   wide   open
   e|--------------------------------------------------------|
   B|--------------------------------------------------------|
   G|--13-13-13-13-13-13-13-13-14\13--13\11--11\9--9--9-9-9--|
   D|--x--x--x--x--x--x--x--x--x------x------x-----x--x-x-x--|
   A|--11-11-11-11-11-11-11-11-12\11--11\9---9-\7--7--7-7-7--|
   E|--------------------------------------------------------|

       C#m                     
To the one, the Son, the       e  -   ver -  lasting
   e|--------------------------------------------------------|
   B|--------------------------------------------------------|
   G|--13-13-13-13-13-13-13-13-14\13--13\11--11\9--9--9-9-9--|
   D|--x--x--x--x--x--x--x--x--x------x------x-----x--x-x-x--|
   A|--11-11-11-11-11-11-11-11-12\11--11\9---9-\7--7--7-7-7--|
   E|--------------------------------------------------------|

    A                                    
    God         the e  -   ver -  lasting
e|------------------------------------------------|
B|------------------------------------------------|
G|--9-9-9-9-9-9-9-9-14\13--13\11--11\9--9--9-9-9--|
D|--x-x-x-x-x-x-x-x-x------x------x-----x--x-x-x--|
A|--7-7-7-7-7-7-7-7-12\11--11\9---9-\7--7--7-7-7--|
E|------------------------------------------------|

    F#m
    God
e|---------------------------------------------------|
B|---------------------------------------------------|
G|--11-11-11-11-11-11-11-11-11-11-11-11-11-11-11-11--|
D|--x--x--x--x--x--x--x--x--x--x--x--x--x--x--x--x---|
A|--9--9--9--9--9--9--9--9--9--9--9--9--9--9--9--9---|
E|---------------------------------------------------|

And that covers it. God bless!
Tap to rate this tab
 
# A B C D E F G H I J K L M N O P Q R S T U V W X Y Z