Song name
# A B C D E F G H I J K L M N O P Q R S T U V W X Y Z

Jesus Culture - Dance With Me tab

Dance With Me (Solo)
Artist: Jesus Culture
Key: C

E||-------|------------------|------------------------|-------------|
B||-------|--8----10---------|------------------------|-------------|
G||-------|-------------9----|--------9----------7----|--7s----5----|
D||-------|------------------|--10---------10---------|-------------|
A||-------|------------------|------------------------|-------------|
E||-------|------------------|------------------------|-------------|

------------------|------------------------|-------|-----------------------|
--8----10---------|------------------------|-------|-----------------------|
-------------9----|--7s----9----9s----7----|--7----|--4s----9----9----9----|
------------------|------------------------|-------|-----------------------|
------------------|------------------------|-------|-----------------------|
------------------|------------------------|-------|-----------------------|

----------------------|-----------------------|-----------------|
----------------------|-----------------------|-----------------|
--9----9----9----9----|--4s----7----7----7----|--4----4---------|
--7----7----7----7----|-----------------------|------------5----|
----------------------|-----------------------|-----------------|
----------------------|-----------------------|-----------------|

-----------------------|----------------------|-----------------------|
-----------------------|----------------------|-----------------------|
--4s----9----9----9----|--9----9----9----9----|--4s----7----7----7----|
-----------------------|--7----7----7----7----|-----------------------|
-----------------------|----------------------|-----------------------|
-----------------------|----------------------|-----------------------|

-----------------|-----------------------|------------------|
-----------------|-----------------------|-------------8----|
--4----4---------|--4s----9----9----9----|------------------|
------------5----|-----------------------|--7----10---------|
-----------------|-----------------------|------------------|
-----------------|-----------------------|------------------|

-----------------------|-----------------|-----------------------|
-----------------------|-----------------|-----------------------|
--4s----7----7----7----|--4----4---------|--4s----9----9----9----|
-----------------------|------------5----|-----------------------|
-----------------------|-----------------|-----------------------|
-----------------------|-----------------|-----------------------|

------------------|------------------|----------------------||
-------------8----|-------------8----|--8----8----8----8----||
------------------|------------------|--7----7----7----7----||
--7----10---------|--7----10---------|--5----5----5----5----||
------------------|------------------|----------------------||
------------------|------------------|----------------------||

Tabbed by:
    Jhe Agbayani
    Destiny Church
    Philippines

To God be the glory!
Tap to rate this tab
# A B C D E F G H I J K L M N O P Q R S T U V W X Y Z