Song name
# A B C D E F G H I J K L M N O P Q R S T U V W X Y Z

Jesus Culture - You Wont Relent tab

-----------------------------------------------------------------------------
YOU WON'T RELENT - Jesus Culture
-----------------------------------------------------------------------------
Tabbed by: Roy Rodas
Email:royrodas27@yahoo.com

Tuning: Normal (EADGBe)

Main Riff (Intro, Verse,Chorus) until 3:12...
e|------------------------------------------------------0-------|
B|----------4h5p4-------------------------------------0---------|
G|--------6-------6----------4/6--------------------2-----------|
D|------6-----------6------7---------6---4---2----2-------------|
A|----4------------------7--------------------------------------|
E|---------------------5----------00---0---0----2---------------|

Main Chords repeated from 3:12-4:25
e|------------------------------------------|
B|------------------------------------------|
G|-----6-------2----------------------------|
D|-----6-------2-or-7------2--------4-------|
A|-----4-------0----7------2--------4-------|
E|------------------5------0--------2-------|
     (C#m5)     (A5)     (E5)     (F#5)

The song is very repetitive and switches between these to parts so after
this he goes back to the Main Riff with Distortion from 4:26-4:49. Then he
just plays the Main Chords with Distortion from 4:50-7:03. He then switches
back to the Main Riff with Distortion from 7:04-7:27. Then he goes back
again to the Main Chords with Distortion from 7:28-9:29 after that he just
slowly comes up from the background with the Main Chords with Distortion
from 9:30-12:19 the he goes back again to the Main Riff with Distortion from
12:20-13:08 then he pretty much just fades out will the end of the song.

Great Worship song! Please let me know what you think. Thanks and God Bless! *********************

| /   slide up
| \   slide down
| h   hammer-on
| p   pull-off
| ~   vibrato
| +   harmonic
| x   Mute note
| b   Bend
| pb  Pre-bend
| br  Bend release
| pbr Pre-bend release
| brb Bend release bend

************************************
Tap to rate this tab
 
# A B C D E F G H I J K L M N O P Q R S T U V W X Y Z