Song name
# A B C D E F G H I J K L M N O P Q R S T U V W X Y Z

Jesus Culture - You Wont Relent tab

You won't relent
To get the timing right, You have to listen to the song.
/=slide
Intro
e|------------------------------------------------------------------------|
b|---------------------4-----5----4---------------------------------------|
g|---------------6---------------------6----4-----------------------------|
d|-----------6------------------------------------------------------------|
a|------4-----------------------------------------------------------------|
e|------------------------------------------------------------------------|

e|------------------------------------------2-------------------------------|
b|-----------------------------0--------------------------------------------|
g|--------------------2-----------------------------------------------------|
d|------------2-------------------------------------------------------------|
a|-----0--------------------------------------------------------------------|
e|--------------------------------------------------------------------------|

e|------------------------------------------------------------------------|
b|------------------------------------------------------------------------|
g|------------------------------------------------------------------------|
d|-----------4/6-----------4-----------2----------------------------------|
a|------2-----------------------------------------------------------------|
e|--0-----------------0-----------0----------0----------------------------|


e|--------------------------------0---------------------------------------|
b|-------------------------0----------------------------------------------|
g|-----------------0------------------------------------------------------|
d|------------------------------------------------------------------------|
a|----------4-------------------------------------------------------------|
e|-----2------------------------------------------------------------------|

Chorus
e|------------------------------------------------------------------------|
b|-----------------------------2-2-2-2-2-2-2-2----------------------------|
g|--------6-6-6-6-6-6-6-6------2-2-2-2-2-2-2-2----------------------------|
d|--------6-6-6-6-6-6-6-6------2-2-2-2-2-2-2-2----------------------------|
a|--------4-4-4-4-4-4-4-4-------------------------------------------------|
e|------------------------------------------------------------------------|

e|------------------------------------------------------------------------|
b|------------------------------------------------------------------------|
g|--------9-9-9-9-9-9-9-9-----4-4-4-4-4-4-4-4-----------------------------|
d|--------9-9-9-9-9-9-9-9-----4-4-4-4-4-4-4-4-----------------------------|
a|--------7-7-7-7-7-7-7-7-----2-2-2-2-2-2-2-2-----------------------------|
e|------------------------------------------------------------------------|
Tap to rate this tab
# A B C D E F G H I J K L M N O P Q R S T U V W X Y Z