Song name
# A B C D E F G H I J K L M N O P Q R S T U V W X Y Z

Jesus Culture - Father Of Lights tab

Intro:
Quarter note delay.
e|-----10-12-14----10-12-14----10-12-9------|
B|--12----------12----------10---------10---|
G|------------------------------------------|
D|------------------------------------------|
A|------------------------------------------|
E|------------------------------------------|


Verse:
Break Then -
e|----0-2-----0-2----------|-----0-2-----0-2-2(x8)-0(x8)-|
B|--3-------3-------2h3p2--|---3-------3-----------------|
G|4-------4-------2------2-|-4-------4-------------------|
D|-------------------------|-----------------------------|
A|-------------------------|-----------------------------|
E|-------------------------|-----------------------------|


Pre-Chorus:
Pick through chords (making the D into D2 and A into A2 sounds better when picking through them)
Em, D2, A2


e|----------------------|
B|----7-7-7-7s10-10-10--|
G|----------------------|
D|----------------------|
A|----------------------|
E|----------------------|


Chorus:
e|------------------------------10(x8)---9(x6)--------|
B|---10s12(x7)---7(x5)-10(x3)------------------10(x2)-|
G|----------------------------------------------------|
D|----------------------------------------------------|
A|----------------------------------------------------|
E|----------------------------------------------------|


Bridge:
D/F# Bm A
D/F# Bm A
Bm   G
D    A  Bm
G    D  A


(Chord inversions)
e|---------------------------------------------------|
B|----10--7--10--10--7--10--7--8--7--10--7--8--7--10-|
G|----7---7--9---7---7--9---7--7--7--9---7--7--7--9--|
D|---------------------------------------------------|
A|---------------------------------------------------|
E|---------------------------------------------------|
Tap to rate this tab
# A B C D E F G H I J K L M N O P Q R S T U V W X Y Z