Song name
# A B C D E F G H I J K L M N O P Q R S T U V W X Y Z

Jesus Culture - Break Every Chain tab

-------------------------------------------------------------------------------
                        BREAK EVERY CHAIN - Jesus Culture
-------------------------------------------------------------------------------
Tabbed by:HarmonicDrone
Email: tabs@amplifydesign.com.au

Tuning: Standard

Chords: F#m D A E ...or... F#m D A A/G#

This song only has 4 chords, so I like to use a variation of the phrases above.
Very simply but powerful!

Tone: Set your guitar/amp/pedals on a light blues distortion.
Sustain and reverb go well with this song. 
If you have a delay pedal, use tap tempo and play around with the settings. 
I use dotted eighths.

1st Instrumental: (after the first chorus)
e|---------------------------------------------------------------------------|
B|---------------------------------------------------------------------------|
G|------6--------------6-----------------------------------------------------|
D|---7-9------------7-9------------------------------------------------------|
A|--7-----7~-------7-----7~--------------------------------------------------|
E|---------------------------------------------------------------------------|

2nd Instrumental:
e|---------------------------------------------------------------------------|
B|---------------------------------------------------------------------------|
G|-----------------------------9---------------------------------------------|
D|----11---9-11~------11---9-11--------(Play 2x)-----------------------------|
A|--12--12----------12--12-------12~-----------------------------------------|
E|---------------------------------------------------------------------------|

e|------------------------------12-------------------------------------------|
B|----14--12--14~-----14---12-14---------------------------------------------|
G|--14--14----------14--14---------14----------------------------------------|
D|-------------------------------------(Play 2x)-----------------------------|
A|---------------------------------------------------------------------------|
E|---------------------------------------------------------------------------|

Build Up:
e|---------------------------------------------------------------------------|
B|--14-15-14-12------(STRUM EACH CHORD 4 TIMES)------------------------------|
G|--14-14-14-14--------------------------------------------------------------|
D|---------------------------------------------------------------------------|
A|---------------------------------------------------------------------------|
E|---------------------------------------------------------------------------|


************************************

| /   slide up
| \   slide down
| h   hammer-on
| p   pull-off
| ~   vibrato
| +   harmonic
| x   Mute note
| b   Bend
| pb  Pre-bend
| br  Bend release
| pbr Pre-bend release
| brb Bend release bend

************************************
Tap to rate this tab
# A B C D E F G H I J K L M N O P Q R S T U V W X Y Z