Song name
# A B C D E F G H I J K L M N O P Q R S T U V W X Y Z

Jesus Culture - Fill Me Up tab

INTRO ; LEAD PLAYS THROUGH TO CHORUS AND 2ND VERSE.
E----------------------------------------'
B----------------------------------------'
G---------------0--------------4---------'
D------0-5---5--5--0-------5-------5-----'
A--5S7----------------7--5---5---5-------'
E----------------------------------------'

Em                G
You provide the Fire
Em                    G
Iíll provide the sacrifice
Em                    G
You provide the Spirit
C
And I will open up the inside


Chorus:  plays the chords in the climax of song and sometimes plays the intro when softer...
Em  
Fill Me Up God 
G
Fill Me Up God
C
Fill Me Up God
D2
Fill Me Up

Bridge:
C
Love Of God
G
Overflow
C
Permeate
G
All my soul

Bridge: Lead
E------------------------------------------------'
B----------------------------12-----12-----------'
G--------12-----12-------------------------------'
D--12s14-----14-----14-14-12-----12--------------'
A------------------------------------------------'
E------------------------------------------------'

Solo:i think its for key board but it can be played for guitar as well with the right effects


E-----------------------------------------------------------------------'x2
B-- 13--12------13--12-----13--12------13--12---------------------------'
G----------------------------------------------14-----------------------'
D---------14-----------12---------14------------------------------------'
A-----------------------------------------------------------------------'
E-----------------------------------------------------------------------'
Tap to rate this tab
# A B C D E F G H I J K L M N O P Q R S T U V W X Y Z