Song name
# A B C D E F G H I J K L M N O P Q R S T U V W X Y Z

Jesus Culture - We Cry Out tab

Tabbed by:Justin
E-mail:justin.bishop@yahoo.ca

So im not going to tab out every note so you will have to listen to the song to 
get it. Its simple.

Tuning: normal

INTRO

 1st Guitar
Listen to the song to figure out hold long to hold each octave. The last octave holds 
for a little while till the next guitar comes in. Then repeat the sequence without holding it.
e|-----------------------------------------------------------------------------|
B|-----------------------------------------------------------------------------|
G|--8-----11-----6----13----8--------------------------------------------------|
D|-----------------------------------------------------------------------------|
A|--6-----9------4----11----6--------------------------------------------------|
E|-----------------------------------------------------------------------------|

2nd Guitar, join in after first guitar goes through chords once
e|-----------------------------------------------------------------------------|
B|-----------------------------------------------------------------------------|
G|--11----15-----10---16-------------------------------------------------------|
D|-----------------------------------------------------------------------------|
A|--9-----13-----8----14-------------------------------------------------------|
E|-----------------------------------------------------------------------------|

VERSE

e|--------66--------------|----------66---------------------------------------|
B|-------------66--77-----|---------------66----------------------------------|
G|---88-------------------|-----88--------------------------------------------|
D|------------------------|---------------------------------------------------|
A|------------------------|---------------------------------------------------|
E|------------------------|---------------------------------------------------|

Chorus

e|--------------------------|
B|-----12-----11-----14-----|
G|--------------------------|   X4
D|-----9------8------11-----|
A|--------------------------|
E|--------------------------|


  other chords during chorus         to verse
e|------------------------|----------------|
B|------------------------|----------------|
G|-----------------6------|----8-----------|
D|----6------4-----6------|----------------|
A|----6------4-----4------|----6-----------|
E|----4------2------------|----------------|

Repeat Verse and Chorus

I have a tab for the solo but I know its not 100% right so I'm not putting it up.
Tap to rate this tab
# A B C D E F G H I J K L M N O P Q R S T U V W X Y Z