Song name
# A B C D E F G H I J K L M N O P Q R S T U V W X Y Z

Jesus Culture - Holding Nothing Back tab

Jeses culture-holding nothing back (chris quilala;live from chicago)awakening


Intro REPEAT THROUGH SONG
 e|-----------------------------------------------------------------|
B|------------------------------------------------------------------|
G|99-7-99--------99-7-99--------------------------------------------|
D|-----------999-------------9-101010-9999999999-1010---------------|
A|------------------------------------------------------------------|
E|------------------------------------------------------------------|

REPEAT
e|-----------------------|
B|-----------------------|
G|2-5-4--------2-5-4-----|NOTHINGS GONNA HOLD ME BACK
D|-----------------------|
A|-----------------------|
E|-----------------------|

REPEAT THROUGH SONG
e|----------------------------------------------------------------|
B|----------------------------------------------------------------|
G|----------------------------------------------------------------|
D|999999999-7777777777-5555555555-7777777777----------------------|
A|777777777-5555555555-3333333333-5555555555----------------------|
E|----------------------------------------------------------------|

ENDING
e|------------------------------------------------------------------------|
B|1717-15-1717------------1717-15-1717------------------------------------|
G|-------------------161616---------------------16-171717-1616------------|
D|------------------------------------------------------------------------|
A|------------------------------------------------------------------------|
E|------------------------------------------------------------------------|
Tap to rate this tab
# A B C D E F G H I J K L M N O P Q R S T U V W X Y Z