Song name
# A B C D E F G H I J K L M N O P Q R S T U V W X Y Z

Jesus Culture - We Are Hungry tab

Capo on 2

These are the lead parts to "We Are Hungry" by Jesus Culture

Good Luck :).

Intro:

e---------12--------------------------12------------------------------|
B---10-10-----------------------10-10---------------------------------|
G---0----------15--14------7----0------------15--14-----10--12--10----|
D---------------------------------------------------------------------|
A---------------------------------------------------------------------|
E---------------------------------------------------------------------|

e---------12--------------------------12-------------------------------|
B---10-10-----------------------10-10----------------------------------|
G---0----------15--14------7----0------------15--14----10--12--14--10--|
D----------------------------------------------------------------------|
A----------------------------------------------------------------------|
E----------------------------------------------------------------------|


Verse 1(2x):

G        C
Lord I want more of You
Em             C
Living water rain down on me
G        C
Lord I need more of You
Em                 C                   G
Living breath of life come fill me up


Chorus:

e----------------------------------------------------------------------|
B----------------------------------------------------------------------|
G----------------------------------------------------------------------|
D---11--11--11--11--9-9-9-9--11-11-11-11--12--12--12--12---------------|
A-----12--12--12--12-7-7-7-7---9--9--9--9---12--12--12--12-------------|
E----------------------------------------------------------------------|


Prelude to Second Verse

e---------12--------------------------12-------------------------------|
B---10-10-----------------------10-10----------------------------------|
G---0----------15--14------7----0------------15--14----10--12--14--10--|
D----------------------------------------------------------------------|
A----------------------------------------------------------------------|
E----------------------------------------------------------------------|


Verse 2:
G        C
Lord I want more of you
G             C
Holy Spirit rain down on me
G        C
Lord I need more of you
Em                C                      G
Living breath of life come and fill me up


Chorus:

e----------------------------------------------------------------------|
B----------------------------------------------------------------------|
G----------------------------------------------------------------------|
D---11--11--11--11--9-9-9-9--11-11-11-11--12--12--12--12---------------|
A-----12--12--12--12-7-7-7-7---9--9--9--9---12--12--12--12-------------|
E----------------------------------------------------------------------|

Solo 1:

e-----------------------------------------------------------|
B---10-10-10-10-10/14-14-14\7-7-7-7-7-9-9-9-----------------|x4
G-----------------------------------------------------------|
D-----------------------------------------------------------|
A-----------------------------------------------------------|
E-----------------------------------------------------------|


Bridge  (x2)
G             D
We lift our holy hands up
Em        C
We want to touch You
G             D               Em                   C
We lift our voices higher and higher and higher to You


Solo 2:

e-----------------------------------------------------------|
B---10-10-10-10-10/14-14-14\7-7-7-7-7-9-9-9-----------------|(4x)
G-----------------------------------------------------------|
D-----------------------------------------------------------|
A-----------------------------------------------------------|
E-----------------------------------------------------------|

e---17-17-17-17-17/21-21-21\14-14-14-14-14-15-15-15---------|
B-----------------------------------------------------------|
G-----------------------------------------------------------|
D-----------------------------------------------------------|
A-----------------------------------------------------------|
E-----------------------------------------------------------|


That's basically it. The lead guitarist puts a couple little fills in before going to 
the chorus. My advice is to listen and play with the song. It will be easier to play if 
you practice this with the song. :).

God Bless....remember, its not for your own glorification and self gratification but for 
His Glory, and His Praise!

any questions or comments, feel free to e-mail me at Mountie2013@gmail.com
Tap to rate this tab
# A B C D E F G H I J K L M N O P Q R S T U V W X Y Z