Song name
# A B C D E F G H I J K L M N O P Q R S T U V W X Y Z

Jesus Culture - Walk With Me tab

Bar the bottom four strings on tenth fret, the whole time.

Intro: Repeat

E --------------------------------------------------------------------------|
B --------------------------------11--10----10-----10-------------------10--|
G --12--10--12--10--12--------------------12----12--------------------------|
D ---------------------12--12--12------------------------10---10---10-------|
A --------------------------------------------------------------------------|
E --------------------------------------------------------------------------|


Chorus: Repeat... still baring the tenth fret, repeats four times on each.

    repeat 4 times        repeat 4 times      repeat 4 times
E ---------------------------------------------------------------|
B ---------10-------------------10-------------------10----------|
G -----10-----10------------10------10-----------12------10------|
D -10-------------------12-------------------10------------------|
A ---------------------------------------------------------------|
E ---------------------------------------------------------------|

  Bridge: Repeats a few times
E -------------------------------------------------------------|
B -----------11---10-------------------------------------------|
G --12---14----------------------------------------------------|
D -------------------------------------------------------------|
A -------------------------------------------------------------|
E -------------------------------------------------------------|
Tap to rate this tab
# A B C D E F G H I J K L M N O P Q R S T U V W X Y Z