Song name
# A B C D E F G H I J K L M N O P Q R S T U V W X Y Z

Jesus Culture - The Burning Ones tab

           Jesus Culture-Burning Ones(chris quilala)



Intro Gm, Dmaj over F#, or  capo 2nd fret C

       Lead Guitar part, use Od, Tremolo, Mod rate, exp pedal
e|------------------------------------------------------|
B|---------------12---------------------------12--------|
G|9-9-11---9-11------9h11-------9-9-11---9-11-----9-9h11|
D|--------------------------xx--------------------------|
A|------------------------------------------------------|
E|------------------------------------------------------|


    Lead Guitar
e|----------------------------------------------------|
B|----------------------------------------------------|
G|11-11-11-11-11-11-11-11-6-6-6-6-6-6-6-6--7-7--------|
D|----------------------------------------------------|
A|----------------------------------------------------|
E|----------------------------------------------------|


    Lead Guitar
e|----------------------------------------------------|
B|----------------------------------------------------|
G|11-11-11-11-11-11-11-11-6-6-6-6-6-6-6-6--7-7--------|
D|----------------------------------------------------|
A|----------------------------------------------------|
E|----------------------------------------------------|

that's most of the song, enjoy!
Tap to rate this tab
 
# A B C D E F G H I J K L M N O P Q R S T U V W X Y Z