Song name
# A B C D E F G H I J K L M N O P Q R S T U V W X Y Z

Jesus Culture - Awaken Me tab

PLEASE RATE AND COMMENT!!!!!:D:D:D:D

Jesus Culture - Awaken Me

Capo is on the 3rd fret
E|---------------------------------------------------------------|
B|---------------------------------------------------------------|
G|-0-0-0-0-0-0-0-0-0-0-0-0-0-2-4-2-0-----------------------------|
D|---------------------------------------------------------------|
A|---------------------------------------------------------------|
E|---------------------------------------------------------------|
This is the techno sounding part in the beginning, he doesnt
actually play all the notes because he has a delay on so he picks
it and it echos, but you can figure that out!
E|---------------------------------------------------------------|
B|---------------------------3-3-3-3-----------------------------|
G|-0-0-0-0-0-0-0-0-0-0-0-0-0-------------------------------------|
D|---------------------------------------------------------------|
A|---------------------------------------------------------------|
E|---------------------------------------------------------------|

This part repeats about three times and goes throughout more of the song
E|---------------------------------------------------------------|
B|--3p0------------0--------11-----15----------------------------|
G|-----2p0----0-2-4-2p0-------0----------------------------------|
D|--------0h2------------1s11--11s15-----------------------------|
A|---------------------------------------------------------------|
E|---------------------------------------------------------------|
Tap to rate this tab
# A B C D E F G H I J K L M N O P Q R S T U V W X Y Z