Song name
# A B C D E F G H I J K L M N O P Q R S T U V W X Y Z

Jesus Culture - Forevermore tab

Forevermore - Jesus Culture

Capo 4
t = tremolo

Can be played with low mix "filler" delay in you want.

Intro
E|------------------------------------|   |---------|
B|--7t--5t--10t--7t--12t--5t--7t--5t--|   |----7----|  Let Ring out
G|------------------------------------|X2 |---------|
D|------------------------------------|   |---------|
A|------------------------------------|   |---------|
E|------------------------------------|   |---------|


Verse 1
E|---------------------------------|
B|---------------------------------|
G|---------------------------------|
D|------------------0t-------------|
A|---------0t--2t----------0t--2t--|
E|----3t----------------3t---------|

Pre-Chorus
    G    Bm     A
E|--3-----2-----------|
B|--3-----3-----2-----|
G|--0-----4-----2-----|
D|--0-----4-----2-----|
A|--2-----2-----------|
E|--3-----------------|

Chorus
E|---9t--10t----7t---5t----|
B|-------------7t---5t-----|
G|-------------------------|
D|-------------------------|
A|-------------------------|
E|-------------------------|

Verse 2             D    G    Bm    A
E|-----------| |----2----3----2----------|
B|-----------| |----3----3----3-----2----|
G|-----------| |----2----0----4-----2----|  Arpeggiate each chord
D|-------2t--| |---------0----4-----2----|
A|-----0t----| |---------2----2----------|
E|---3t------| |---------3---------------|

Bridge Soloes
E|-------------------------------|-----------------------------|
B|--10--12-------------2h3p2h3---|-----------------2/3---5/7---|
G|---------9---11...\------------|---2/4---2-------------------|
D|-------------------------------|-----------4---2-------------|
A|-------------------------------|-----------------------------|
E|-------------------------------|-----------------------------|

E|----------------------------------------|
B|----10t----10t----10t--7t--8t-7t--------|
G|-------7t-----7t-----------------9t-----| "We are shouting..."
D|----------------------------------------|   X3  (Palm muted)
A|----------------------------------------|
E|----------------------------------------|

E|--10t---10t---10t----12t-----|
B|-----7t----7t----7t----10t---|
G|-----------------------------|  X3
D|-----------------------------|  (Open palm)
A|-----------------------------|
E|-----------------------------|

E|--10t----10t----10t---12t--9t----|
B|-----7t-----7t-----7t------------|
G|---------------------------------|
D|---------------------------------|
A|---------------------------------|
E|---------------------------------|

Outro
E|------10t----10t---12t---9t----|
B|----7t-----7t------------------|
G|-------------------------------|
D|-------------------------------|
A|-------------------------------|
E|-------------------------------|
Tap to rate this tab
 
# A B C D E F G H I J K L M N O P Q R S T U V W X Y Z