Song name
# A B C D E F G H I J K L M N O P Q R S T U V W X Y Z

Jesus Culture - Your Love Never Fails tab

Lead Guitar
I think it's pretty close. It sounds good anyways haha.
I may have left some stuff out. A lot of stuff out...


INTRO

e [---------------------------------------------------------------------------|
B [-----------------------6--8-----6~----------6--7-----6~--------------------|
G [--//7---------------7--------5-----------7--------5------------------------|
D [------8-10~---8~~------------------8~~-------------------------------------|
A [---------------------------------------------------------------------------|
E [---------------------------------------------------------------------------|

INTRO 2

e [-----------------------------------------------------------------------------|
B [-----------------------------------------------------------------------------|
G [-----------------------------------------------------------------------------|
D [-------8~------------8~~-------8~-7~----------8~-------------8~-------7~~----|
A [--//6~----6~---//10~------//8~-----------//6~------6~--//10~-------8~--------|
E [-----------------------------------------------------------------------------|


VERSE 1

e [-----------------------------------------------------------------------|
B [-----------------------------------------------------------------------|
G [---7-----------------------------------7-------------------------------|
D [-----8-10~~------------------------------8-10~~------------------------|
A [-----------------------------------------------------------------------|
E [-----------------------------------------------------------------------|


PRE-CHORUS

e [---------------------------------------------------------------------------------|
B [---------------------------------------------------------------------------------|
G [----8--8~---------7~----------10--10~---------8~---------------------------------|
D [---8-----------8------------10-------------10-----------(x3)---------------------|
A [--6-----------8------8-----8-------------10-------10-----------------------------|
E [-------------6--------------------------8----------------------------------------|


e [---------------------------------------------------------------------------|
B [---------------------------------------------------------------------------|
G [----8--8~---------7~----------10--10~--101010101010101010------------------|
D [---8-----------8------------10----------101010101010101010-----------------|
A [--6-----------8------8-----8------------8-8-8-8-8-8-8-8-8------------------|
E [-------------6-------------------------------------------------------------|



CHORUS

e [----------------------------------------------------------------------------|
B [----------------------------------------------------------------------------|
G [----------------------------------------------------------------------------|
D [------8~-----------8~-------7~~---------------------------------------------|
A [--//6~--6~---//10~------//8~------------------------------------------------|
E [----------------------------------------------------------------------------|


VERSE 2

e [--------------------------------5~-----------------------------------------|
B [-----------------------------------6~----6~--------------------------------|
G [--7~--------------10-10--------------5~---------7~-------------------------|
D [----8~-10~~-----8---8--8~~----------------8~~-----8~-10~~------------------|
A [---------------------------------------------------------------------------|
E [---------------------------------------------------------------------------|


CHORUS

(strum)
e [-------------------------------------------------------------------------------|
B [-------------------------------------------------------------------------------|
G [--8----7----10---8------------8----7------10---10------------------------------|
D [--8----8----10---10---(x3)-----8----8-----10----10-----------------------------|
A [--6----8----8----10-----------6-----8----8------8------------------------------|
E [-------6----------8-----------------6------------------------------------------|


(REPEAT INTRO 2)



BRIDGE

e [----------------------------------------------------------------------|
B [-------------------------6--------11------8---------------------------|
G [--8~~//12~~//10~~------8-------12------10-----------------------------|
D [--8~~//12~~//10~~-----8------12------10-------------------------------|
A [--6~~//10~~//8~~-----6-----10-------8---------------------------------|
E [----------------------------------------------------------------------|


e [-----------------------------------------------------------------------------|
B [--------11~~----------11~~--------10~~------------10--10---------------------|
G [--//8~~--------//12~~-------//10~~-------(x4)--------------------------------|
D [-----------------------------------------------------------------------------|
A [-----------------------------------------------------------------------------|
E [-----------------------------------------------------------------------------|


e [---------10-10-------10-10-------8-8--------8-8---------------------------|
B [---11-11-------11-11-------11-11-----11-11--------------------------------|
G [-----------------------------------------------------(x4)-----------------|
D [--------------------------------------------------------------------------|
A [--------------------------------------------------------------------------|
E [--------------------------------------------------------------------------|
Tap to rate this tab
 
# A B C D E F G H I J K L M N O P Q R S T U V W X Y Z