Song name
# A B C D E F G H I J K L M N O P Q R S T U V W X Y Z

Jesus Lizard - Fly On The Wall tab

Verse:
e|----------------------------------------------------------------|
B|----------------------------------------------------------------|
G|--9-9-9-9-9r----------------------------------------------------|
D|-------------8-8--7-7-7-7-7--8-8--------------------------------|
A|----------------------------------7-7-7-7-7-7-7-7-7-7-7-7-7-7-7-|
E|----------------------------------------------------------------|
the high E is abundant thru out the verse

e|----------------------------------------------------------------|
B|----------------------------------------------------------------|
G|--9-9-9-9-9--9r-------------------------------------------------|
D|-------------8-8--7-7-7-7-7--8-8--8-8-8-8-8-8-8-8-8-8-8-8-8-8-8-|
A|----------------------------------7-7-7-7-7-7-7-7-7-7-7-7-7-7-7-|
E|----------------------------------------------------------------|
try these.

Chorus:
e|-----------------------------------------------|
B|-----------------------------------------------|
G|-----------7--7-7-7-7-7-7-7-7-7-7-7-7-7-7-7-7--|
D|-----------7--7-7-7-7-7-7-7-7-7-7-7-7-7-7-7-7--|
A|-(0)(2)----5--5-5-5-5-5-5-5-5-5-5-5-5-5-5-5-5--|
E|-----------------------------------------------|

Bridge:
e|-----------------------------------------------|
B|-----------------------------------------------|
G|----55--5---33----3-33--7-77777----------------|
D|----55--5---33----3-33--7-77777----------------|
A|--0-33--3-0-11----1-11--5-55555-etc------------|
E|-----------------------------------------------|

e|--3-5---------------10-12----------------------|
B|-----3-5-------3-5-------10-12----------10-12--|
G|--------2-4-2-4---------------9-11--9-11-------|
D|-----------5----------------------12-----------|
A|-----------------------------------------------|
E|-----------------------------------------------|

e|--3-5---------------|
B|-----3-5-------3-5--|
G|--------2-4-2-4-----|
D|-----------5--------|
A|--------------------|
E|--------------------|
please, help correct this tab
....
Tap to rate this tab
# A B C D E F G H I J K L M N O P Q R S T U V W X Y Z