Song name
# A B C D E F G H I J K L M N O P Q R S T U V W X Y Z

Jesus Lizard - Chrome tab

Help us improve GuitareTab! Take a short survey!
The Jesus Lizard
Chrome
Standard Tuning


INTRO: Noise, Pick scraping, feed back

                         h:   Hammer On
E-------------------|
B-------------------|
G-----7-7-5---5-5-5-|
D-----7-7-5---5-5-5-|
A-----5-5-3-0h3-0-3-|
E-------------------|


E---------------------|
B---------------------|
G-----7---5---3-------|
D-----7---5---3---5---|
A-----5---3---1---5---|
E-----------------3---|

E-----------------------|
B-----------------------|
G-----------------------|
D---2-2-2-2----9/5-5----|
A---2-2-2-2----7/3-3----|
E---0-0-0-0-------------|

E-----------------------|
B-----------------------|
G-----------------------|
D---------7-7-----7-7---|
A-----5-5-5-5-7-7-5-5---|
E-----3-3-----5-5-------|
Related for Chrome tab