Song name
# A B C D E F G H I J K L M N O P Q R S T U V W X Y Z

Jesus Lizard - Fly On The Wall tab

                             FLY ON THE WALL

Artist:The Jesus Lizard
Album: Down
Tabbed by: the_jackyl
The Jesus Lizard are: badass

VERSE:

     S S S S S S S S S S S S S S S S    S S S S S S S S S S S S S S S S  
E||----------------------------------|----------------------------------|
B||--5-5-5-5-5-5-5-5-5-5-5-5-5-5-5-5-|--5-5-5-5-5-5-5-5-5-5-5-5-5-5-5-5-|
G||------------3-3-2-2-2-2-2-2-x-x-x-|--x-x-x-x-x-x-x-x-x-x-x-x-x-x-x-x-|
D||----------------------------0-0-2-|--2-2-2-2-2-2-2-2-2-2-2-2-2-2-2-2-|
A||----------------------------------|----------------------------------|
E||----------------------------------|----------------------------------|


CHORUS:

   PM PM                                PM PM  
   S  S     S S S S S S S S S S S S S S S  S   
|--------|------------------------------------|
|--------|--3-3-3-3-3-3-3-3-3-3-3-3-3-3-------|
|--------|--2-2-2-2-2-2-2-2-2-2-2-2-2-2-------|
|--------|--0-0-0-0-0-0-0-0-0-0-0-0-0-0-------|
|--0--2--|------------------------------0--2--|
|--------|------------------------------------|


                               PM PM  |- 1st, 2nd endings ------------|
                                
   S S S S S S S S S S S S S S S  S     S S S S S S S S S S S S S S    
|------------------------------------|-------------------------------||
|--3-3-3-3-3-3-3-3-3-3-3-3-3-3-------|--3-3-3-3-3-3-3-3-3-3-3-3-3-3--||
|--2-2-2-2-2-2-2-2-2-2-2-2-2-2-------|--2-2-2-2-2-2-2-2-2-2-2-2-2-2--||
|--0-0-0-0-0-0-0-0-0-0-0-0-0-0-------|--0-0-0-0-0-0-0-0-0-0-0-0-0-0--||
|------------------------------0--2--|-------------------------------||
|------------------------------------|-------------------------------||

 |- 3rd ending ---------------------| BRIDGE:
                               PM                 PM                    PM PM  
   S S S S S S S S S S S S S S S  S     E  E  S S S  S E  E  S S S S    S  S   
|-----------------------------------|--------------------------------|--------|
|--3-3-3-3-3-3-3-3-3-3-3-3-3-3------|--------------------------------|--------|
|--2-2-2-2-2-2-2-2-2-2-2-2-2-2-3--5-|---L--5----5--------------------|--------|
|--0-0-0-0-0-0-0-0-0-0-0-0-0-0-3--5-|---L--5----5-6--8-L--8----8-8---|--------|
|------------------------------1--3-|---L--3----3-6--8-L--8----8-8---|--0--2--|
|-----------------------------------|-------------4--6-L--6----6-6---|--------|


                               PM                 PM                  
   S S S S S S S S S S S S S S S  S     E  E  S S S  S E  E  S S S S  
|-----------------------------------|--------------------------------|
|--3-3-3-3-3-3-3-3-3-3-3-3-3-3------|--------------------------------|
|--2-2-2-2-2-2-2-2-2-2-2-2-2-2-3--5-|---L--5----5--------------------|
|--0-0-0-0-0-0-0-0-0-0-0-0-0-0-3--5-|---L--5----5-6--8-L--8----8-8---|
|------------------------------1--3-|---L--3----3-6--8-L--8----8-8---|
|-----------------------------------|-------------4--6-L--6----6-6---|


   S S S S S S S S S S E       S  S  S  S  S  S  S  S  S  S  S   S  
|--3-5---------------------|---------------------------------------|
|------3-5-----------3-5S--|--15-17--------------------------------|
|----------2-4-0-2-4-------|--------14-16----------------14-16h-17-|
|--------------------------|--------------14-16----14-16-----------|
|--------------------------|--------------------17-----------------|
|--------------------------|---------------------------------------|

                                    
   S S S S S S S S S S E         
|--3-5---------------------|
|------3-5-----------3-5b--|
|----------2-4-0-2-4-------|
|--------------------------|
|--------------------------|
|--------------------------|

OUTRO:

   PM PM                                     
   S  S     S S S S S S S S S S S S S S E    
|--------|---------------------------------||
|--------|--3-3-3-3-3-3-3-3-3-3-3-3-3-3-R--||
|--------|--2-2-2-2-2-2-2-2-2-2-2-2-2-2-R--||
|--------|--0-0-0-0-0-0-0-0-0-0-0-0-0-0-R--||
|--0--2--|---------------------------------||
|--------|---------------------------------||


FORM:
(Verse
Chorus) x3
Bridge
Verse
Outro


---------------
Duration Legend
---------------
W - whole
H - half
Q - quarter
E - 8th
S - 16th
T - 32nd
X - 64th
. - note dotted
|-n-|  - n-tuplets
R - Rest

----------------
Tablature Legend
----------------
L - tied note
x - dead note
g - grace note
(n) - ghost note
> - accentuded note
NH - natural harmonic
AH - artificial harmonic
TH - tapped harmonic
SH - semi harmonic
PH - pitch harmonic
h - hammer on
p - pull off
b - bend
br - bendRelease
pb - preBend
pbr - preBendRelease
brb - bendReleaseBend
\n/ - tremolo bar dip
\n - tremolo bar dive
-/n - tremolo bar Release up
/n\ - tremolo bar inverted dip
/n - tremolo bar return
-\n - tremolo bar Release down
S - shift slide
s - legato slide
/ -  slide into from below or out of upwards
\ -  slide into from above or out of downwards
~ - vibrato
W - wide vibrato
tr - trill
TP - tremolo picking
T - tapping
S - slap
P - pop
< - fade in
^ - brush up
v - brush down
Tap to rate this tab
 
# A B C D E F G H I J K L M N O P Q R S T U V W X Y Z