Song name
# A B C D E F G H I J K L M N O P Q R S T U V W X Y Z

Jesus Lizard - Dancing Naked Ladies tab

I'm tired of this song not being up here, since it's one of their best.
I worked it out the best I could.  Please revise.


Intro:
  e|-------------------------------|----------------------------------|x4
  B|-------------------------------|----------------------------------|
4 G|-2p0---------------------------|-2p0-----------------------------*|
4 D|-2p0---------------------------|-2p0-----------------------------*|
  A|---------2-2-2-2---------------|---------2-2-2-2---2---3---4---5--|
  E|-----3-0-0-0-0-0-0-0---0-0---0-|-----3-0-0-0-0-0-0---1---2---3----|
           pm----|   >     >   >           pm----|    

Bridge I
  e|-------------|
  B|-7/5\7-4/5\4-|
3 G|-7/5\7-4/5\4-|
8 D|-7/5\7-4/5\4-|
  A|-------------|
  E|-------------|

Verse:
  e|-------------------------------------|x8
  B|---------------------5/4-5/7\5-------|
9 G|-4-4-6-----4-----6---5/4-5/7\5------*|
8 D|-5-5-7-----5-----7---5/4-5/7\5------*|
  A|-5-5-7-----5-----7-------------------|
  E|-------------------------------------|
     You said you feel like you were on drugs
     that you've been sweeping under rugs...

     You better sleep it off...

Chorus:
  e|-------------------------------|----------------------------------|x4
  B|-------------------------------|----------------------------------|
4 G|-2p0---------------------------|-2p0-----------------------------*|
4 D|-2p0---------------------------|-2p0-----------------------------*|
  A|---------2-2-2-2---------------|---------2-2-2-2---2---3---4---5--|
  E|-----3-0-0-0-0-0-0-0---0-0---0-|-----3-0-0-0-0-0-0---1---2---3----|
           pm----|   >     >   >           pm----|
     Nooooo!                                         Dancin'
     Nooooo!                                         Naked...

Bridge II
  Gtr. I
  e|-------------------------|------------------------|x4
  B|-<7><7><7><7><7><7><7><7>|<7><7><7><7><7><7><7><7>|
4 G|-------------------------|-----------------------*|
4 D|-------------------------|-----------------------*|
  A|-------------------------|------------------------|
  E|-------------------------|------------------------|

  Gtr. II
  e|----------------|-----------------|x3 (silent first 2 measures)
  B|----------<7>~--|-----------<7>~--|
4 G|----------------|----------------*|
4 D|----<7>---------|----<7>---------*|
  A|-<7>---<7>------|-<7>---<7>-------|
  E|----------------|-----------------|

Intro
Bridge I
Verse
Chorus
Bridge I
Verse
Bridge II
Bridge I
Verse
Bridge I x3
End on E5
Tap to rate this tab
 
# A B C D E F G H I J K L M N O P Q R S T U V W X Y Z