Song name
# A B C D E F G H I J K L M N O P Q R S T U V W X Y Z

Jesus Lizard - Mouth Breather tab

Tuning: Standard

Played crisp and clean, briskly

First Sequence
e|------------------------------------------------|
B|-5-5-3-5----5-3-5-6-5-3--5-5-3-5---5-3-5-6-5-3--|
G|-5-5-3-5----5-3-5-6-5-3--5-5-3-5---5-3-5-6-5-3--|
D|-5-5-3-5----5-3-5-6-5-3--5-5-3-5---5-3-5-6-5-3--|
A|-3-3-3-3----3-3-3-4-3-3--3-3-3-3---3-3-3-4-3-3--|
E|------------------------------------------------|
                                                   ..... and so on.....

Second sequence
e|------------------------------------------------|
B|------------------------------------------------|
G|------------------------------------------------|
D|-6-6-4-6----6-4-6-7-6-4--6-6-4-6---6-4-6-7-6-4--|
A|-6-6-4-6----6-4-6-7-6-4--6-6-4-6---6-4-6-7-6-4--|
E|-4-4-4-4----4-4-4-5-4-4--4-4-4-4---4-4-4-5-4-4--|
                                                   ..... until .....



e|------------------------------------------------|
B|------------------------------------------------|
G|------------------------------------------------|
D|-3-3-1-3----3-1-3-4-3-1--3-3-1-3---3-1-3-4-3-1--|
A|-3-3-1-3----3-1-3-4-3-1--3-3-1-3---3-1-3-4-3-1--|
E|-1-1-1-1----1-1-1-2-1-1--1-1-1-1---1-1-1-2-1-1--|



| /  slide up
|   slide down
| h  hammer-on
| p  pull-off
| ~  vibrato
| +  harmonic
| x  Mute note
===============================================================================
Tap to rate this tab
 
# A B C D E F G H I J K L M N O P Q R S T U V W X Y Z