Song name
# A B C D E F G H I J K L M N O P Q R S T U V W X Y Z

Jesus Lizard - Destroy Before Reading tab

"Destroy Before Reading"
by The Jesus Lizard
from "Down"
words and music by: David Yow, Duane Denison, Mac McNeilly, and David Wm. Sims
tabbed by Benjamin White

Intro/Chorus (x6)
e |-------------------|----------------------------------------|
B |-------------------|----------------------------------------|
G |.--7-h8--7--------.|----------------------------------------|
D |.--0-----0--------.|----7-----------------7--------7--------|
A |-------------------|----0-----------------0--------0--------|
E |-------------------|----------------------------------------|

Pre-Verse (x4)
e |------------------------------------------|
B |----------------3/5-----------------6\5---|
G |.-----4-4-------2/4-------4-4-------5\4--.|
D |.-----4-4-------3/5-------4-4-------6\5--.|
A |------2-2-----------------2-2-------------|
E |------------------------------------------|

Verse (x4)
e |-------------------------------------------------------------------------------------|
B |----------------3/5-----------------8\7--------------------3/-10--9--8---------------|
G |------4-4-------2/4-------4-4-------7\6----------4-4-------2/--9--8--7--------------.|
D |------4-4-------3/5-------4-4-------8\7----------4-4-------3/-10--9--8--------------.|
A |------2-2-----------------2-2--------------------2-2---------------------------------|
E |-------------------------------------------------------------------------------------|

Chorus (x8)
e |-------------------|
B |-------------------|
G |.--7-h8--7--------.|
D |.--0-----0--------.|
A |-------------------|
E |-------------------|

Bridge/Solo (x3)
e |------------------------------------------9--9---|
B |-------------------------------------9h10-10-9---|
G |.-------------------------------9h11-----(9)(9)-.|
D |.-4------------------------9h11-----------------.|
A |--4-------------------9h12-----------------------|
E |--2----------------------------------------------|

   (x3)
e |-------------------|----------------------------------------|
B |-------------------|----------------------------------------|
G |.-----------------.|----------------------------------------|
D |.-4-4--------4-4--.|----7--------7--------7--------7--------|
A |--4-4--------4-4---|----0--------0--------0--------0--------|
E |--2-2--------2-2---|----------------------------------------|

Outro (P.M. x2, regular x1)
e |-----------------------------------------------------------------|
B |-----------------------------------------------------------------|
G |.-4-4-4-4-4-4-4-/-7-7-7-7-7-7-7---------------------------------.|
D |.-4-4-4-4-4-4-4-/-7-7-7-7-7-7-7-7-7-7-7-7-7-7-\-4-4-4-4-4-4-4-4-.|
A |--2-2-2-2-2-2-2-/-5-5-5-5-5-5-5-7-7-7-7-7-7-7-\-4-4-4-4-4-4-4-4--|
E |--------------------------------5-5-5-5-5-5-5-\-2-2-2-2-2-2-2-2--|

   (4th time)                                      (x4)
e |-----------------------------------------------|-----------------|
B |-----------------------------------------------|--10--9--8-------|
G |-4-4-4-4-4-4-4-/-7-7-7-7-7-7-7-----------------|.--9--8--7------.|
D |-4-4-4-4-4-4-4-/-7-7-7-7-7-7-7-7-7-7-7-7-7-7-7-|.-10--9--8------.|
A |-2-2-2-2-2-2-2-/-5-5-5-5-5-5-5-7-7-7-7-7-7-7-7-|-----------------|
E |-------------------------------5-5-5-5-5-5-5-5-|-----------------|


e |-----------------------------------------------------------------|
B |-----------------------------------------------------------------|
G |--4-4-4-4-4-4-4-/-7-7-7-7-7-7-7----------------------------------|
D |--4-4-4-4-4-4-4-/-7-7-7-7-7-7-7-7-7-7-7-7-7-7-\-4-4-4-4-4-4-4-4--|
A |--2-2-2-2-2-2-2-/-5-5-5-5-5-5-5-7-7-7-7-7-7-7-\-4-4-4-4-4-4-4-4--|
E |--------------------------------5-5-5-5-5-5-5-\-2-2-2-2-2-2-2-2--| =

   (final chord)
e |-----------------------------------------------------------------|
B |-----------------------------------------------------------------|
G |--4--------------------------------------------------------------|
D |--4--------------------------------------------------------------|
A |--2--------------------------------------------------------------|
E |-----------------------------------------------------------------|

That's it!
Cheers!
-bennyshambles78-
Tap to rate this tab
 
# A B C D E F G H I J K L M N O P Q R S T U V W X Y Z