Song name
# A B C D E F G H I J K L M N O P Q R S T U V W X Y Z

Jesus Lizard - Seasick tab

                       The Jesus Lizard-seasick
ok,one of the most depressive bands on the earth???.....why not!!!!
(acording to ultimate-guitar conventions...)
intro/verse:
e:------------------------------------------------------------------------|
b:------------------------------------------------------------------------|
g:------------------------------------------------------------------------|
d:------------------------------------------------------------------------|
a:2-2-2-4-2-4-------------------------------------------------------------|
e:0-0-0-3-0-3-------------------------------------------------------------|
(PM----   -      in quite moments)

noisy moment in somewhere around 1:45:
e:-------------------------------------------------------------------------|
b:-------------------------------------------------------------------------|
g:*-*-*-*-*-*-*-*-*-*-*----------------------------------------------------|
d:*-*-*-*-*-*-*-*-*-*-*----------------------------------------------------|
a:*-*-*-*-*-*-*-*-*-*-*----------------------------------------------------|
e:*-*-*-*-*-*-*-*-*-*-*----------------------------------------------------|
         2nd fret

psychedelic interlude:
e:-------------------------------------------------------------------------|
b:5-4-0-------5-4-0--------5-4-0--------5-4-0----5-------------------------|
g:------0-----------0------------0-----------0-----------------------------|
d:--------------------2------------------------2---------------------------|
a:-------------------------------------------------------------------------|
e:-------------------------------------------------------------------------|

thats all..
please send comments,suggestions or FUCK YOU e-mails to:bertillbizarro@seznam.cz

  "life is just a painful period between the born and the death"
                                                         Egon Bondy
Tap to rate this tab
# A B C D E F G H I J K L M N O P Q R S T U V W X Y Z