Song name
# A B C D E F G H I J K L M N O P Q R S T U V W X Y Z

Jesus Lizard - Zachariah tab

----------------------------------------------------------------------------
			    Zachariah - The Jesus Lizard
----------------------------------------------------------------------------
Tabbed by: Jon

Only do the pull off the last time
e|--------------------------------------------------------------------------|
B|--------------------------------------------------------------------------|
G|--------------------------------------------------------------------------|
D|-----5------7-------5-----------------------------------------------------|
A|---5---5--6-------5---5---6p5---------------------------------------------|
E|-3--------------3-------6-------------------------------------------------|

Variation (at 4:26)
e|---------------------------------------------------------------|
B|---------------------------------------------------------------|
G|---------------------------------------------------------------|
D|-----5------10-------------------------------------------------|
A|---5---5--7----------------------------------------------------|
E|-3-------------------------------------------------------------|


 Use a slide for this part
e|---------------------------------------------------------------------------|
B|---------------------------------------------------------------------------|
G|-12--8--10--7--5--3--5-----------------------------------------------------|
D|-12--8--10--7--5--3--5-----------------------------------------------------|
A|---------------------------------------------------------------------------|
E|---------------------------------------------------------------------------|

Then...
e|--------------------------------------------------------------------------|
B|--------------------------------------------------------------------------|
G|-12-12-------10-10--------12-12-------10-10-------12-12-------10-10-------|
D|-12-12-12-12-10-10-10-10--12-12-12-12-10-10-10-10-12-12-12-12-10-10-10-8--|
A|-10-10-12-12-8--8--10-10--10-10-12-12-8--8--10-10-10-10-12-12-8--8--10-8--|
E|-------10-10-------8--8---------10-10-------8--8--------10-10-------8--6--|

e|--------------------------------------------------------------------------|
B|--------------------------------------------------------------------------|
G|--8-8-------10-10---------------------------------------------------------|
D|--8-8-8-8---10-10-12-12---------------------------------------------------|
A|--6-6-8-8---8--8--12-12---------------------------------------------------|
E|------6-6---------10-10---------------------------------------------------|
Tap to rate this tab
# A B C D E F G H I J K L M N O P Q R S T U V W X Y Z