Song name
# A B C D E F G H I J K L M N O P Q R S T U V W X Y Z

Jesus Lizard - Pastoral tab

#----------------------------------PLEASE NOTE---------------------------------#
#This file is the author's own work and represents their interpretation of the #
#song. You may only use this file for private study, scholarship, or research. #
#------------------------------------------------------------------------------#



PASTAROL
As recorded by The Jesus Lizard
(From the 1990 Album HEAD)


Transcribed by moose

 Words and Music by The Jesus Lizard

 

Gtr I (E A D G B E) - 'Duane Denison'


    Q=45
    N.C.
   2/4
    Gtr I
||----5-----5-----5-|---------0-----0-|-----2p0-(0)--|-(0)-----||
||o-9---9p7---7S5---|-4h5p4S2---2p0---|--------------|--------o||
||------------------|-----------------|-4S2----------|---------||
||------------------|-----------------|--------------|---------||
||o-----------------|-----------------|--------------|--------o||
||------------------|-----------------|--------------|---------||


|---5-----5-----5-|---------0-----0-|-----2p0-(0)--|-----2p0-(0)---|
|-9---9p7---7S5---|-4h5p4S2---2p0---|--------------|---------------|
|-----------------|-----------------|-4S2----------|-4S2-----------|
|-----------------|-----------------|--------------|---------------|
|-----------------|-----------------|--------------|---------------|
|-----------------|-----------------|--------------|---------------|


|---5-----5-----5-|---------0-----0-|-----2p0-(0)--|-5p0---4p0---2-|
|-9---9p7---7S5---|-4h5p4S2---2p0---|--------------|---------------|
|-----------------|-----------------|-4S2----------|-----2-----2---|
|-----------------|-----------------|--------------|---------------|
|-----------------|-----------------|--------------|---------------|
|-----------------|-----------------|--------------|---------------|


|----10-------10-------10-|----------5-----5-|-----7p5-(5)--|-----7p5-(5)---|
|-14----14p12----12S10----|-9h10p9S7---7p5---|--------------|---------------|
|-------------------------|------------------|-9p7----------|-9p7-----------|
|-------------------------|------------------|--------------|---------------|
|-------------------------|------------------|--------------|---------------|
|-------------------------|------------------|--------------|---------------|


|----10-------10-------10-|----------5-----5-|-----7p5-(5)--|-10p5---9p5---7-|
|-14----14p12----12S10----|-9h10p9S7---7p5---|--------------|----------------|
|-------------------------|------------------|-9p7----------|------7-----7---|
|-------------------------|------------------|--------------|----------------|
|-------------------------|------------------|--------------|----------------|
|-------------------------|------------------|--------------|----------------|


                                                           Esus4 A6/EEsus4
||----5-----5-----5-|---------0-----0-|-----2p0-(0)--|-(0)---------------||
||o-9---9p7---7S5---|-4h5p4S2---2p0---|--------------|-----9-9-9-7---9--o||
||------------------|-----------------|-4S2----------|-----9-9-9-9-9-9---||
||------------------|-----------------|--------------|-----7-7-7-7-7-7---||
||o-----------------|-----------------|--------------|-----7-7-7-7-7-7--o||
||------------------|-----------------|--------------|-------------------||


  N.C.
|----9-------9------9-|---------------|---2-----2-------|----------------|
|-12---12p10---10S9---|-7h9p7---9-----|-5---5p3---3p2-0-|-0h2p0---2------|
|---------------------|-------9---9p7-|-----------------|-------2---2p1--|
|---------------------|---------------|-----------------|----------------|
|---------------------|---------------|-----------------|----------------|
|---------------------|---------------|-----------------|----------------|


                                                           Esus4 A6/EEsus4
||----5-----5-----5-|---------0-----0-|-----2p0-(0)--|-(0)---------------||
||o-9---9p7---7S5---|-4h5p4S2---2p0---|--------------|-----9-9-9-7---9--o||
||------------------|-----------------|-4S2----------|-----9-9-9-9-9-9---||
||------------------|-----------------|--------------|-----7-7-7-7-7-7---||
||o-----------------|-----------------|--------------|-----7-7-7-7-7-7--o||
||------------------|-----------------|--------------|-------------------||


    N.C.
||------------------|-----------------|-----0--------|-----0---------||
||o---5-----5-----5-|-----------------|-------0-(0)--|-(0)---0-(0)--o||
||--7---7p6---6p4---|-2h4p2---4-----4-|--------------|---------------||
||------------------|-------6---6p4---|-4S2----------|---------------||
||o-----------------|-----------------|--------------|--------------o||
||------------------|-----------------|--------------|---------------||


|----10-------10-------10-|----------5-----5-|
|-14----14p12----12S10----|-9h10p9S7---7p5---|
|-------------------------|------------------|
|-------------------------|------------------|
|-------------------------|------------------|
|-------------------------|------------------|


|-----7p5-(5)--|-----7p5-(5)-7p5---|
|--------------|-------------------|
|-9p7----------|-9p7---------------|
|--------------|-------------------|
|--------------|-------------------|
|--------------|-------------------|


|----10-------10-------10-|----------5-----5-|-----7p5-(5)--|-10p5---9p5---7---|
|-14----14p12----12S10----|-9h10p9S7---7p5---|--------------|------------------|
|-------------------------|------------------|-9p7----------|------7-----7-----|
|-------------------------|------------------|--------------|------------------|
|-------------------------|------------------|--------------|------------------|
|-------------------------|------------------|--------------|------------------|


                                                           Esus4 A6/EEsus4
||----5-----5-----5-|---------0-----0-|-----2p0-(0)--|-(0)---------------||
||o-9---9p7---7S5---|-4h5p4S2---2p0---|--------------|-----9-9-9-7---9--o||
||------------------|-----------------|-4S2----------|-----9-9-9-9-9-9---||
||------------------|-----------------|--------------|-----7-7-7-7-7-7---||
||o-----------------|-----------------|--------------|-----7-7-7-7-7-7--o||
||------------------|-----------------|--------------|-------------------||


  N.C.
|----9-------9------9-|---------------|---2-----2-------|----------------|
|-12---12p10---10S9---|-7h9p7---9-----|-5---5p3---3p2-0-|-0h2p0---2------|
|---------------------|-------9---9p7-|-----------------|-------2---2p1--|
|---------------------|---------------|-----------------|----------------|
|---------------------|---------------|-----------------|----------------|
|---------------------|---------------|-----------------|----------------|


  H.=H
|---5-----5-----5-|-----5-----5-----|-5-----5---5-|-----------*|
|-9---9p7---7p5---|-5h7---7h9---9p7-|---7p5-------|-----------*|
|-----------------|-----------------|---------7---|-9p7-(7)---*|
|-----------------|-----------------|-------------|-----------*|
|-----------------|-----------------|-------------|-----------*|
|-----------------|-----------------|-------------|-----------*|




--------------------------------------------------------------------------------


Tablature Legend
----------------
 h   - hammer-on
 p   - pull-off
 b   - bend
 pb  - pre-bend
 r   - bend release (if no number after the r, then release immediately)
 /\  - slide into or out of (from/to "nowhere")
 s   - legato slide
 S   - shift slide
 - natural harmonic
[n]  - artificial harmonic
n(n) - tapped harmonic
 ~   - vibrato
 tr  - trill
 T   - tap
 TP  - trem. picking
 PM  - palm muting
\n/  - tremolo bar dip; n = amount to dip
 \n  - tremolo bar down
 n/  - tremolo bar up
/n\  - tremolo bar inverted dip
 =   - hold bend; also acts as connecting device for hammers/pulls
 <> - volume swell (louder/softer)
 x   - on rhythm slash represents muted slash
 o   - on rhythm slash represents single note slash

Misc Legend
-----------
 |  - bar
||  - double bar
||o - repeat start
o|| - repeat end
*|  - double bar (ending)
 :  - bar (freetime)
 $  - Segno
 &  - Coda
Tempo markers -  = BPM(8/16=s8/s16), where s8 = swing 8ths, s16 = swing 16ths

Tap to rate this tab
# A B C D E F G H I J K L M N O P Q R S T U V W X Y Z