Song name
# A B C D E F G H I J K L M N O P Q R S T U V W X Y Z

Jesus Lizard - Lady Shoes tab

----------------------------------------------------------------------------
			     LADY SHOES - THE JESUS LIZARD
----------------------------------------------------------------------------
Tabbed by: Jon

Tuning: Standard

 Alternate between these two
 notes for the first riff, then...
e|---------------------------|----------------------------------------------|
B|---------------------------|----------------------------------------------|
G|---------------------------|----------------------------------------------|
D|---------------------------|----------------------------------------------|
A|---------------------------|--------6----4--------------------------------|
E|--2--------5---------------|-----7----5-----------------------------------|

 Repeat this a lot
e|------2-------------------------------------------------------------------|
B|------2-------------------------------------------------------------------|
G|------3-------------------------------------------------------------------|
D|--4-----------------------------------------------------------------------|
A|--4----------5------------------------------------------------------------|
E|--2----------6---5--------------------------------------------------------|

 For the bridge just arpegiate these two chords:
  F#madd11  Amadd9
e|-2-----------5------------------------------------------------------------|
B|-0-----------0------------------------------------------------------------|
G|-2-----------5------------------------------------------------------------|
D|-4-----------7------------------------------------------------------------|
A|--------------------------------------------------------------------------|
E|--------------------------------------------------------------------------|

For the ending just alternate between an A# and an A.
Tap to rate this tab
# A B C D E F G H I J K L M N O P Q R S T U V W X Y Z