Song name
# A B C D E F G H I J K L M N O P Q R S T U V W X Y Z

Jesus Lizard - Karpis tab

----------------------------------------------------------------------------
			    Karpis - The Jesus Lizard
----------------------------------------------------------------------------

Tabbed by: Jon

Intro
e|-------------------------------|
b|-------------------------------|
G|-------------------3---2--0----|
D|--2---1---0------4---4---------|
A|----2---2---3-2----------------|
E|-------------------------------|

e|----------------------------------|
b|----------------------------------|
G|----------------------3---2p3-2---|
D|---2---1---0--------4---4---------|
A|-----2---2---3-1/2----------------|
E|----------------------------------|

e|------------------------------|
b|------------------------------|
G|--------------------3---2--0--|
D|---2---1---0------4---4-------|
A|-----2---2---3-2--------------|
E|------------------------------|

 For the first and third time this riff is played, do this:
e|--------------------------------|
b|---------------2b--2b--2b-------|
G|---------------2b--2b--2b-------|
D|---2---1---0--------------------|
A|-----2---2--3-------------------|
E|--------------------------------|

On the third time do this:
e|-------------------6--5-----|
b|--5---4---3------7--7---8---|
G|----4---4---5-4-------------|
D|----------------------------|
A|----------------------------|
E|----------------------------|

For the verse palm mute that riff and double pick some notes.

 First and Second Chorus (play each of these notes a lot).
e|-------------------|-----------------|------------------|-----------------|
B|--10---10---8---13-|-10---10---8---6-|-10---10---8---13-|-10---10---8-----|
G|--9----8----7---12-|-9----8----7---5-|-9----8----7---12-|-9----8----7-----|
D|-------------------|-----------------|------------------|-----------------|
A|-------------------|-----------------|------------------|-----------------|
E|-------------------|-----------------|------------------|-----------------|

Bridge:                "I shaved my ass..."
e|--------------------|--5--5--5--X-X--8--8--8--8---------------------------|
B|-8--8--8------------|--5--5--5--X-X--8--8--8--8---------------------------|
G|-9--9--9---7-7-7-7--|--6--6--6--X-X--9--9--9--9---------------------------|
D|-----------8-8-8-8--|--7--7--7--X-X--10-10-10-10--------------------------|
A|--------------------|--7--7--7--X-X--10-10-10-10--------------------------|
E|--------------------|--5--5--5--X-X--8--8--8--8---------------------------|

 For the third verse, insert this:
e|---------------------------------------------------------------------------|
B|---------------------------------------------------------------------------|
G|---------------------------------------------------------------------------|
D|-2---1---0-0---------------------------------------------------------------|
A|---2---2-----3-2-2-1-1-0---------------------------------------------------|
E|--------------------------4-3-2-1------------------------------------------|

Third Chorus (play these notes a lot):
e|--------------------------------------------------------------------------|
B|-8------------------------------------------------------------------------|
G|-9--7---------------------------------------------------------------------|
D|----8---------------------------------------------------------------------|
A|--------------------------------------------------------------------------|
E|--------------------------------------------------------------------------|

 Outro(let ring):
e|-----0-------0-------0-----------------------------------------------------|
B|---8---8---8---8---8---8---------------------------------------------------|
G|-9-------9-------9-------9-------------------------------------------------|
D|---------------------------------------------------------------------------|
A|---------------------------------------------------------------------------|
E|---------------------------------------------------------------------------|
Tap to rate this tab
 
# A B C D E F G H I J K L M N O P Q R S T U V W X Y Z