Song name
# A B C D E F G H I J K L M N O P Q R S T U V W X Y Z

Jet Black Stare - Im Breathing tab

Electric Guitar Is Tuned to Half-Step Down, Acoustic Guitar Is Tuned To Standard

Verse (Acoustic Guitar)
|-0-xx-x-x-0-xx-x-x-0-xx-x-x---xx---xx-|
|-1-xx-x-x-1-xx-x-x-1-xx-x-x-0-xx-0-xx-|
|-0-xx-x-x-0-xx-x-x-0-xx-x-x-2-xx-1-xx-|
|-2-xx-x-x-2-xx-x-x-2-xx-x-x-2-xx-0-xx-|
|-3-xx-x-x-3-xx-x-x-3-xx-x-x-0-xx-2-xx-|
|---xx-x-x---xx-x-x---xx-x-x---xx---xx-|

Verse (Electric Guitar)
|------------------------|
|------------------------|
|-777--777--777--555-444-|
|-777--777--777--555-444-|
|-555--555--555--333-222-|
|------------------------|

Pre Chorus
|---------------------------------|
|---------------------------------|
|-9-9-9-9-9-9-9-9-8-8-8-8-8-8-8-8-|
|-9-9-9-9-9-9-9-9-8-8-8-8-8-8-8-8-|
|-7-7-7-7-7-7-7-7-6-6-6-6-6-6-6-6-|
|---------------------------------|

Chorus
|---------------------------------|
|---------------------------------|
|-7-7-7-7---------5-5-5-5-4-4-4-4-|
|-7-7-7-7-7-7-7-7-5-5-5-5-4-4-4-4-|
|-5-5-5-5-7-7-7-7-3-3-3-3-2-2-2-2-|
|---------5-5-5-5-----------------|

Solo
Coming Soon!

Bridge
|---------------------------------|
|---------------------------------|
|-7-7-7-7-7-7-7-7-4-4-4-4-4-4-4-4-|
|-7-7-7-7-7-7-7-7-4-4-4-4-4-4-4-4-|
|-5-5-5-5-5-5-5-5-2-2-2-2-2-2-2-2-|
|---------------------------------|
Tap to rate this tab
# A B C D E F G H I J K L M N O P Q R S T U V W X Y Z