Song name
# A B C D E F G H I J K L M N O P Q R S T U V W X Y Z

Jet Black Stare - Ready To Roll tab

-------------------------------------------------------------------------------
			     READY TO ROLL - Jet Black Stare
-------------------------------------------------------------------------------
Tabbed by: Chris D.
Email: cldukes06@gmail.com
Notes: I only use std. tuning for illustrative purposes, please tune your guitar 
to the song...This isn't the whole song, just WHAT I THINK is the tab for the JBS video on 
Thanks!

Tuning: Drop Db


Part I: Introduction

e|---------------------------------------------------------------------------|
B|---------------------------------------------------------------------------|
G|---------------------------------------------------------------------------|
D|--------------5p-0---------------------------------------------------------|
A|--2----0/7p-0-------0---5p-0---7p-0----5------5----------------------------|
E|--2----------------------------------------0--5--0-------------------------|

e|---------------------------------------------------------------------------|
B|---------------------------------------------------------------------------|
G|---------------------------------------------------------------------------|
D|--------------5p-0---------------------------------------------------------|
A|--2----0/7p-0-------0---5p-0---7p-0----5------5----------------------------|
E|--2----------------------------------------0--5--0-------------------------|

e|---------------------------------------------------------------------------|
B|---------------------------------------------------------------------------|
G|---------------------------------------------------------------------------|
D|--------------5p-0---------------------------------------------------------|
A|--2----0/7p-0-------0---5p-0---7p-0----5------5----------------------------|
E|--2----------------------------------------0--5--0-------------------------|

e|---------------------------------------------------------------------------|
B|---------------------------------------------------------------------------|
G|---------------------------------------------------------------------------|
D|--------------5p-0---------------------------------------------------------|
A|--2----0/7p-0-------0---5p-0---7p-0----5------5----------------------------|
E|--2----------------------------------------0--5--0-------------------------|

e|---------------------------------------------------------------------------|
B|---------------------------------------------------------------------------|
G|---------------------------------------------------------------------------|
D|---------------------------------------------------------------------------|
A|--2---0--2p-0--2p-0X*------2--0--2p-0--2p-5~-------------------------------|
E|--2---0--2p-0--2p-0X*------2--0--2p-0--2p-5~-------------------------------|

e|---------------------------------------------------------------------------|
B|---------------------------------------------------------------------------|
G|---------------------------------------------------------------------------|
D|---------------------------------------------------------------------------|
A|--2---0--2p-0--2p-0X*------2--0--2p-0--2p-5~-------------------------------|
E|--2---0--2p-0--2p-0X*------2--0--2p-0--2p-5~-------------------------------|

e|---------------------------------------------------------------------------|
B|---------------------------------------------------------------------------|
G|---------------------------------------------------------------------------|
D|---------------------------------------------------------------------------|
A|--2---0--2p-0--2p-0X*------2--0--2p-0--2p-5~-------------------------------|
E|--2---0--2p-0--2p-0X*------2--0--2p-0--2p-5~-------------------------------|

e|---------------------------------------------------------------------------|
B|---------------------------------------------------------------------------|
G|---------------------------------------------------------------------------|
D|--------------5p-0---------------------------------------------------------|
A|--2----0/7p-0-------0---5p-0---7p-0----5---5-------------------------------|
E|--2----------------------------------------5--0----------------------------|


Part II: Verse (coming soon)


| *  Play, then immediately mute power chord.
| /  slide up
| \  slide down
| h  hammer-on
| p  pull-off
| ~  vibrato
| +  harmonic
| x  Mute note
===============================================================================
Tap to rate this tab
# A B C D E F G H I J K L M N O P Q R S T U V W X Y Z