Guitaretab - guitar tabs
Song name
# A B C D E F G H I J K L M N O P Q R S T U V W X Y Z

Jet Black Stare - Im Breathing tab

Tabbed by Jamie Harris
Tuning - Half Step down then Drop D (or drop Db)

N.B At the chorus I've tried to get the timing in but it
may be a little off numbers wise.

Intro - Acoustic
---x--------xx--------xx----------------|
-3-x--3-3-3-xx--3-3-3-xx--1-1-1-------1-|
-2-x--2-2-2-xx--2-2-2-xx--0-0-0-------0-|
-0-x--0-0-0-xx--0-0-0-xx--2-2-2-5-5-5-2-|
-0-x--0-0-0-xx--0-0-0-xx--3-3-3-5-5-5-3-|
-0-x--0-0-0-xx--0-0-0-xx--------5-5-5---| x 2
                          ^^^^^^^^^^^^^^
2nd time electric join in here

Verse
----------------------------------|
-3----3-3----3-3------------------|
-2----2-2----2-2----5-5-5-------5-|
-0----0-0----0-0----5-5-5-5-5-5-5-|
-0----0-0----0-0----3-3-3-5-5-5-3-|
-0----0-0----0-0----------5-5-5---| x 2

Pre-Chorus
Guitar 1
---------------------------------|
---------------------------------|
-3-3-3-3-3-3-3-3-5-5-5-5-5-5-5-5-|
-3-3-3-3-3-3-3-3-5-5-5-5-5-5-5-5-|
-1-1-1-1-1-1-1-1-3-3-3-3-3-3-3-3-|
---------------------------------| x 2

Guitar 2
----------------------------------|
-6---6---6---6----5---5---5---5---|
---5---5---5---5----5---5---5---5-|
----------------------------------|
----------------------------------|
----------------------------------|

-----------------------------------10-|
-6---6---6---6----8---8---8---8/10----|
---5---5---5---5----5---5---5---------|
--------------------------------------|
--------------------------------------|
--------------------------------------|

Chorus Pt.1
--------------------------------------|
-3--3--3------------------------------|
-2--2--2------------5--5--5-----------|
-0--0--0-3-3-3-3--3-5--5--5-5-5-5-5-3-|
-0--0--0-3-3-3-3--3-3--3--3-5-5-5-5-3-|
-0--0--0-3-3-3-3--3---------5-5-5-5-3-| x 2

Pt.2
Guitar 1
---------------------------------|
---------------------------------|
-3-3-3-3---------5-5-5-5---------|
-3-3-3-3-3-3-3-3-5-5-5-5-5-5-5-5-|
-1-1-1-1-3-3-3-3-3-3-3-3-5-5-5-5-|
---------3-3-3-3---------5-5-5-5-|

---------------------------|
---------------------------|
-3-3-3-3-3-3-3-3-5-5-5-5-5-|
-3-3-3-3-3-3-3-3-5-5-5-5-5-|
-1-1-1-1-1-1-1-1-3-3-3-3-3-|
---------------------------|

Guitar 2
-13--13--13-17-13---15--15--15--15---|
---13--13--------13---13--13--13--13-|
-------------------------------------|
-------------------------------------|
-------------------------------------|
-------------------------------------|

-13--13--13--13---15--15--15--15---|
---13--13--13--13---15--15--15--15-|
-----------------------------------|
-----------------------------------|
-----------------------------------|
-----------------------------------|
[ Tab from: http://www.guitaretab.com/j/jet-black-stare/204138.html ]
Post-Chorus
-------------------------------------|
-------------------------------------|
-----------------------------5-5-----|
-0--0-3-0--0-0-3-0--0--0-3-0-5-5-5-5-|
-0--0-3-0--0-0-3-0--0--0-3-0-3-3-5-5-|
-0--0-3-0--0-0-3-0--0--0-3-0-----5-5-| x 2

Verse 2 - Guitar 2
------------------------     ---------------------|
------------------------     ---------------------|
-------------10p9-------     ---------------------|
-------10-12------10-12-     -10h12-9h10----------|
-10h12------------------     ------------10h12-8~-|
------------------------ x 3 ---------------------|

All ^ x4

Pre-Chorus
Chorus

Bridge Pt.1
Guitar 1
------------------------------------------------------|
-3~---------------------------------------------------|
-2~------------------5-5-5-5--5--5-5--5-5-5-5--5--5-5-|
-0~-------3~---------5-5-5-5--5--5-5--5-5-5-5--5--5-5-|
-0~-------3~---------3-3-3-3--3--3-3--3-3-3-3--3--3-3-|
-0~-------3~------------------------------------------| x 2

Guitar 2
---------5------------12-12-12-13-12--12-12-12-13-12-10~-|
-6-----8-------8-10--------------------------------------|
---7-7-------7-------------------------------------------|
---------------------------------------------------------|
---------------------------------------------------------|
---------------------------------------------------------| x2

Pt.2 - Bass solo first then
Guitar 1
---------------------------------|
---------------------------------|
-------------------------5-5-5-5-|
-0-0-0-0-0-0-0-0-3-3-3-3-5-5-5-5-|
-0-0-0-0-0-0-0-0-3-3-3-3-3-3-3-3-|
-0-0-0-0-0-0-0-0-3-3-3-3---------| x 2
 . . . . . . . . . . . . . . . .  <-Palm Mute

GUitar 2 Acoustic
-----0---0---0----1---1---0--------|
-------3---3---3----3---3---3---3--|
---2--------------------------2----|
-0---------------------------------|
-----------------------------------|
-----------------------------------| x 2

Both
-----------------------|
-----------------------|
-3~--------------------|
-3~----5-5-5-5-5-5-5-5-|
-1~----5-5-5-5-5-5-5-5-|
-------5-5-5-5-5-5-5-5-|
       . . . . . . . .

Chorus x 2

Outro Solo over Post Chorus riff
---------------------------------------------------|
-/13-13-13-13-13-13-13-13-13-----------------------|
--xx-xx-xx-xx-xx-xx-xx-xx-xx-12-10-9---------------|
-/12-12-12-12-12-12-12-12-12---------12-10-9-10h12-|
---------------------------------------------------|
---------------------------------------------------| x 2

Done. I'm not convinced myself by the last solo so if anyone else
could do it more accurately that would be great :) The rest of it
should be right.
Related for Im Breathing tab
Im Breathing chords by Jet Black Stare