Jet Black Stare - Ready To Roll tab

Jet Black Stare
Ready To Roll
Drop C# tuning  (C#-Ab-C#-Gb-Bb-Eb)

Intro Riff A  X4
|------------------------------|
|------------------------------|
|------------------------------|
|-2--------6p0-------------5-0-|
|-2--7p5p0-----0-6p0-7p5p0-5-0-|
|-2------------------------5-0-|

Intro Riff B  X3  then Intro Riff A once
|-----------------------------|
|-----------------------------|
|-----------------------------|
|-2-p0-2p0-2p0--2-p0-2p0-5--0-|
|-2-p0-2p0-2p0--2-p0-2p0-5--0-|
|-2-p0-2p0-2p0--2-p0-2p0-5--0-|

Verse 1   X4
|-----------------------------|
|-----------------------------|
|-----------------------------|
|-2-2-2-2-2-2-2-2-2-2-2-2-5-0-|
|-2-2-2-2-2-2-2-2-2-2-2-2-5-0-|
|-2-2-2-2-2-2-2-2-2-2-2-2-5-0-|
  . . . . . . . . . . . . 

Pre Chorus 1    X2
|-----------------------------------------------------------------------------------------|
|-----------------------------------------------------------------------------------------|
|-----------------------------------------------------------------------------------------|
|-10-10-10-10-10-10-10-10-5-5-5-5-5-5-5-5-12-12-12-12-12-12-12-12-12-12-12-12-12-12-12-12-|
|-10-10-10-10-10-10-10-10-5-5-5-5-5-5-5-5-12-12-12-12-12-12-12-12-12-12-12-12-12-12-12-12-|
|-10-10-10-10-10-10-10-10-5-5-5-5-5-5-5-5-12-12-12-12-12-12-12-12-12-12-12-12-12-12-12-12-|

Chorus 1   
|-----------------------------------------------------------------|
|-----------------------------------------------------------------|
|-----------------------------------------------------------------|
|-2-2-2-2-2-2-2-2-0-0-0-0-0-0-0-0-5-5-5-5-5-5-5-5-0-0-0-0-0-0-0-0-|
|-2-2-2-2-2-2-2-2-0-0-0-0-0-0-0-0-5-5-5-5-5-5-5-5-0-0-0-0-0-0-0-0-|
|-2-2-2-2-2-2-2-2-0-0-0-0-0-0-0-0-5-5-5-5-5-5-5-5-0-0-0-0-0-0-0-0-|

|-----------------------------------------------------------------|
|-----------------------------------------------------------------|
|-----------------------------------------------------------------|
|-2-2-2-2-2-2-2-2-0-0-0-0-0-0-0-0-5-5-5-5-5-5-5-5-7-7-7-7-7-7-7-7-|
|-2-2-2-2-2-2-2-2-0-0-0-0-0-0-0-0-5-5-5-5-5-5-5-5-7-7-7-7-7-7-7-7-|
|-2-2-2-2-2-2-2-2-0-0-0-0-0-0-0-0-5-5-5-5-5-5-5-5-7-7-7-7-7-7-7-7-|


(After chorus play Intro Riff B once then Intro Riff A once)

Verse 2   X4
|-----------------------------|
|-----------------------------|
|-----------------------------|
|-2-2-2-2-2-2-2-2-2-2-2-2-5-0-|
|-2-2-2-2-2-2-2-2-2-2-2-2-5-0-|
|-2-2-2-2-2-2-2-2-2-2-2-2-5-0-|
  . . . . . . . . . . . . 

Pre Chorus 2    X2
|-----------------------------------------------------------------------------------------|
|-----------------------------------------------------------------------------------------|
|-----------------------------------------------------------------------------------------|
|-10-10-10-10-10-10-10-10-5-5-5-5-5-5-5-5-12-12-12-12-12-12-12-12-12-12-12-12-12-12-12-12-|
|-10-10-10-10-10-10-10-10-5-5-5-5-5-5-5-5-12-12-12-12-12-12-12-12-12-12-12-12-12-12-12-12-|
|-10-10-10-10-10-10-10-10-5-5-5-5-5-5-5-5-12-12-12-12-12-12-12-12-12-12-12-12-12-12-12-12-|

Chorus 2   X2
|-----------------------------------------------------------------|
|-----------------------------------------------------------------|
|-----------------------------------------------------------------|
|-2-2-2-2-2-2-2-2-0-0-0-0-0-0-0-0-5-5-5-5-5-5-5-5-0-0-0-0-0-0-0-0-|
|-2-2-2-2-2-2-2-2-0-0-0-0-0-0-0-0-5-5-5-5-5-5-5-5-0-0-0-0-0-0-0-0-|
|-2-2-2-2-2-2-2-2-0-0-0-0-0-0-0-0-5-5-5-5-5-5-5-5-0-0-0-0-0-0-0-0-|

|-----------------------------------------------------------------|
|-----------------------------------------------------------------|
|-----------------------------------------------------------------|
|-2-2-2-2-2-2-2-2-0-0-0-0-0-0-0-0-5-5-5-5-5-5-5-5-7-7-7-7-7-7-7-7-|
|-2-2-2-2-2-2-2-2-0-0-0-0-0-0-0-0-5-5-5-5-5-5-5-5-7-7-7-7-7-7-7-7-|
|-2-2-2-2-2-2-2-2-0-0-0-0-0-0-0-0-5-5-5-5-5-5-5-5-7-7-7-7-7-7-7-7-|

Now play Intro Riff A 4X

Bridge 1
|----------------------------------------------------------------------|
|----------------------------------------------------------------------|
|----------------------------------------------------------------------|
|-2-2----------2-2----------2-2----------2-2-2-2-2-2-2-2-2-2-2-2-2-5-0-|
|-2-2----------2-2----------2-2----------2-2-2-2-2-2-2-2-2-2-2-2-2-5-0-|
|-2-2----------2-2----------2-2----------2-2-2-2-2-2-2-2-2-2-2-2-2-5-0-|

Solo (Sorry but I don't know the lead yet) :(
|-----------------------------------------------------------------------------------------|
|-----------------------------------------------------------------------------------------|
|-----------------------------------------------------------------------------------------|
|-10-10-10-10-10-10-10-10-5-5-5-5-5-5-5-5-12-12-12-12-12-12-12-12-12-12-12-12-12-12-12-12-|
|-10-10-10-10-10-10-10-10-5-5-5-5-5-5-5-5-12-12-12-12-12-12-12-12-12-12-12-12-12-12-12-12-|
|-10-10-10-10-10-10-10-10-5-5-5-5-5-5-5-5-12-12-12-12-12-12-12-12-12-12-12-12-12-12-12-12-|
|-----------------------------------------------------------------------------------------|
|-----------------------------------------------------------------------------------------|
|-----------------------------------------------------------------------------------------|
|-10-10-10-10-10-10-10-10-5-5-5-5-5-5-5-5-12-12-12-12-12-12-12-12-12-12-12-12-12-12-12-12-|
|-10-10-10-10-10-10-10-10-5-5-5-5-5-5-5-5-12-12-12-12-12-12-12-12-12-12-12-12-12-12-12-12-|
|-10-10-10-10-10-10-10-10-5-5-5-5-5-5-5-5-12-12-12-12-12-12-12-12-12-12-12-12-12-12-12-12-|

Chorus 3   X3
|-----------------------------------------------------------------|
|-----------------------------------------------------------------|
|-----------------------------------------------------------------|
|-2-2-2-2-2-2-2-2-0-0-0-0-0-0-0-0-5-5-5-5-5-5-5-5-0-0-0-0-0-0-0-0-|
|-2-2-2-2-2-2-2-2-0-0-0-0-0-0-0-0-5-5-5-5-5-5-5-5-0-0-0-0-0-0-0-0-|
|-2-2-2-2-2-2-2-2-0-0-0-0-0-0-0-0-5-5-5-5-5-5-5-5-0-0-0-0-0-0-0-0-|

|-----------------------------------------------------------------|
|-----------------------------------------------------------------|
|-----------------------------------------------------------------|
|-2-2-2-2-2-2-2-2-0-0-0-0-0-0-0-0-5-5-5-5-5-5-5-5-7-7-7-7-7-7-7-7-|
|-2-2-2-2-2-2-2-2-0-0-0-0-0-0-0-0-5-5-5-5-5-5-5-5-7-7-7-7-7-7-7-7-|
|-2-2-2-2-2-2-2-2-0-0-0-0-0-0-0-0-5-5-5-5-5-5-5-5-7-7-7-7-7-7-7-7-|




Outro X4  (End with double hit on the Eb chord with the top three strings)
|------------------------------|
|------------------------------|
|------------------------------|
|-2--------6p0-------------5-0-|
|-2--7p5p0-----0-6p0-7p5p0-5-0-|
|-2------------------------5-0-|


Thanks!!
Tap to rate this tab
 
# A B C D E F G H I J K L M N O P Q R S T U V W X Y Z