Jet Lag Gemini - Ready Set No tab

------------------------------------------------------------------|
--7nh-------------------------------------------------------------|
-----6h8-8h10-10h11-13~-11~-13~-11~-10~-11~-10~-8~-10~------------|
-------------------------------------------------------11~-10~-6~-|
------------------------------------------------------------------|
------------------------------------------------------------------|

-----------------------------------------------------------------------|
-----------------------------------------------------------7nh---------|
---------6x5x1-1xx1x1x-------------------------------------------------|
---3-3---8x6x3-3xx3x3x-6-4-3-4-3-1-3-1ph~-----1-3-1/3-1-/6-------------|
------------------------------------------4-4--------------------------|
-----------------------------------------------------------------------|
   x x                                                    <
                                                         
--------|----|    --------|----|
--6h7p6-|16x-|    -t9p6p5-|16x-|
--------|----|    --------|----|
--------|----|    --------|----|
--------|----|    --------|----|
--------|----|    --------|----|

-------------------------------------------------|
-------------------------------------------------|
----13^~-13-11-10-11-10-8-10-8-10-11-10-11-13-11-|
-------------------------------------------------|
-------------------------------------------------|
-------------------------------------------------|

---------------------------------------------------|
---------------------------------------------------|
-13-15-13-15-17-15-17-18~-18~-18~-20^-20^-20^-20^--|
---------------------------------------------------|
---------------------------------------------------|
---------------------------------------------------|


Legend:

nh= normal harmonic
ph= pinch  harmonic
~ = vibrato
p = pull-off
h = hammer-on
t = tab
x = palm mute
/ = slide
^ = bend
Tap to rate this tab
 
# A B C D E F G H I J K L M N O P Q R S T U V W X Y Z