Song name
# A B C D E F G H I J K L M N O P Q R S T U V W X Y Z

Jet Lag Gemini - Fit To Be Tied tab

Tabbed by: Richard Tranter

Standard D Tuning = DGCFAd

I think they actually play it half a step down (standard Eb) but its not any more 
complicated in standard D. It is also playable is Standard Tuning if you would prefer to play 
it in that.

This is a class song and I was disappointed to find no full accurate tabs so I thought I 
would give it a shot, hope you all enjoy!!

KEY:
b = Bend
r = Return (from a bend)
t = Tap On
h = Hammer On
p = Pull Off
<> = Pinch Harmonic
~~ = Let Ring
|- -P.M- -| (under notes) = Palm Mute those notes
tr = Tremlo Pick
\ = Slide Down
/ = Slide Up

=============================Intro===============================================

Guitar 1:

d|--------------------|
A|--13b14r13----------|
F|--13b14r13-11-------|
C|--------------13----|
G|--------------------|
D|--------------------|

Main Riff:

d|-141414--111111----------111111--------------------|
A|-141414--111111----------111111--13b14r13----------|  (The bend is quite quick)
F|-----------------141414----------13b14r13--11------| x5
C|---------------------------------------------13----|
G|---------------------------------------------------|
D|---------------------------------------------------|

d|-141414--111111----------111111-----------|
A|-141414--111111----------111111-----------|
F|-----------------141414-----------<14>----|
C|------------------------------------------|
G|------------------------------------------|
D|------------------------------------------|

Than repeat the Main Riff 4 more times, the last of which is slightly different:

d|-141414--111111----------111111--11-----|
A|-141414--111111----------111111--14b----|
F|-----------------141414-----------------|
C|----------------------------------------|
G|----------------------------------------|
D|----------------------------------------|



Guitar 2:

3rd time of Main Riff:
d|-----------------------------------------|
A|-----------------------------------------|
F|-6~~~~~~~~~~~~~~~~~~~~~~~~~~~~~~~~~~~~~~~|
C|-6~~~~~~~~~~~~~~~~~~~~~~~~~~~~~~~~~~~~~~~|
G|-4~~~~~~~~~~~~~~~~~~~~~~~~~~~~~~~~~~~~~~~| Let ring for two Riffs
D|-----------------------------------------|

5th Time:
d|------------------------------------|
A|------------------------------------|     On the second time start
F|-8-8-8-8-8-8-8-8-8-8-8-8-8-8-8-8----|     lifting your palm so it
C|-8-8-8-8-8-8-8-8-8-8-8-8-8-8-8-8----| x2  progressively becomes more
G|-6-6-6-6-6-6-6-6-6-6-6-6-6-6-6-6----|     open.
D|------------------------------------|
  |- - - - - - - P.M - - - - - - -|


Then:
d|--------|
A|--------|
F|-<8>----|  at the same time as Guitar 1s harmonic
C|--------|
G|--------|
D|--------|

d|--------------------------------------------------------------------|
A|--------------------------------------------------------------------|
F|-8-8-8-8-8-8-8-8-8-8-8-8-8-8-8-8------------------------------------|
C|-8-8-8-8-8-8-8-8-8-8-8-8-8-8-8-8-9-9-9-9-9-9-6-6-6-6-6-6-6-6-6-6----| x2
G|-6-6-6-6-6-6-6-6-6-6-6-6-6-6-6-6-9-9-9-9-9-9-6-6-6-6-6-6-6-6-6-6----|
D|---------------------------------7-7-7-7-7-7-4-4-4-4-4-4-4-4-4-4----|



=============================VERSE 1=============================================

d|------------------------------------------------------------------------|
A|------------------------------------------------------------------------|
F|-8-8-8-8-8-8-8-8-8-8-8-8-8-8-8-8---------------------8-8-8-8-8-8-8-8----| x2
C|-8-8-8-8-8-8-8-8-8-8-8-8-8-8-8-8-9-9-9-9-11-11-11-11-8-8-8-8-8-8-8-8----|
G|-6-6-6-6-6-6-6-6-6-6-6-6-6-6-6-6-9-9-9-9-11-11-11-11-6-6-6-6-6-6-6-6----|
D|---------------------------------7-7-7-7-9--9--9--9---------------------|
  |- - - - -P.M- - - -|   |- - - - - - - - - -P.M- - - - - - - - - - -|

d|-----------------------------------------------------------------------|
A|----------------------11-11--------------------------------------------|
F|-8--------------------11-11--------------------------------------------|
C|-8---------------11---------------9---------------6-6-6-6-6-6-6-6-6----|
G|-6---------------11---------------9---------------6-6-6-6-6-6-6-6-6----|
D|-----------------9----------------7---------------4-4-4-4-4-4-4-4-4----|


Guitar 1:
d|--------------------------|
A|--------------------------|
F|-------------4-----<4>----|
C|-------4--6-----6---------|
G|-4--6---------------------|
D|--------------------------|

=============================CHORUS 1============================================

d|--------------------------------------------------------------------|
A|--------------------------------------------------------------------|
F|-8-8-8-8-8-8-8-8---------------------------------6-6-6-6-7-7-7-7----|x2
C|-8-8-8-8-8-8-8-8-9-9-9-9-9-9-9-9-6-6-6-6-6-6-6-6-6-6-6-6-7-7-7-7----|
G|-6-6-6-6-6-6-6-6-9-9-9-9-9-9-9-9-6-6-6-6-6-6-6-6-4-4-4-4-5-5-5-5----|
D|-----------------7-7-7-7-7-7-7-7-4-4-4-4-4-4-4-4--------------------|


=============================Post-Chorus============================================

Guitar 1:
d|-141414--111111----------111111--------------------|
A|-141414--111111----------111111--13b14r13----------|
F|-----------------141414----------13b14r13--11------|
C|---------------------------------------------13----| x3
G|---------------------------------------------------|
D|---------------------------------------------------|

d|-141414--111111----------111111--------------------|
A|-141414--111111----------111111--14----------------|
F|-----------------141414-------------14b15r14-------|
C|---------------------------------------------13----|
G|---------------------------------------------------|
D|---------------------------------------------------|

Guitar 2:

 (*Begin playing when Guitar 1 hits the F string on the 14th fret*)
d|---------------------------------------------------------------------|
A|---------------------------------------------------------------------|
F|--------------8-8-8-8-8-8-8-8-8-8------------------------------------|
C|--------------8-8-8-8-8-8-8-8-8-8-9-9-9-9-9-9-6-6-6-6-6-6-6-6-6-6----| x2
G|--------------6-6-6-6-6-6-6-6-6-6-9-9-9-9-9-9-6-6-6-6-6-6-6-6-6-6----|
D|----------------------------------7-7-7-7-7-7-4-4-4-4-4-4-4-4-4-4----|


=============================VERSE 2============================================

d|------------------------------------------------------------------------|
A|------------------------------------------------------------------------|
F|-8-8-8-8-8-8-8-8-8-8-8-8-8-8-8-8---------------------8-8-8-8-8-8-8-8----|
C|-8-8-8-8-8-8-8-8-8-8-8-8-8-8-8-8-9-9-9-9-11-11-11-11-8-8-8-8-8-8-8-8----|
G|-6-6-6-6-6-6-6-6-6-6-6-6-6-6-6-6-9-9-9-9-11-11-11-11-6-6-6-6-6-6-6-6----|
D|---------------------------------7-7-7-7-9--9--9--9---------------------|
  |- - - - -P.M- - - -|   |- - - - - - - - - -P.M- - - - - - - - - - -|

d|----------------------------------------------------------|
A|----------------------------------------------------------|
F|---8---------8--8---8---8---------------------------------|
C|---8---------8--8---8---8----------9-9-9-9-11-11-11-11----|
G|---6---------6--6---8---6----------9-9-9-9-11-11-11-11----|
D|-----------------------------------7-7-7-7-9--9--9--9-----|
"..sings along to all my wrongs..."

d|-----------------------------------------------------------------------|
A|----------------------11-11--------------------------------------------|
F|-8--------------------11-11--------------------------------------------|
C|-8---------------11---------------9---------------6-6-6-6-6-6-6-6-6----|
G|-6---------------11---------------9---------------6-6-6-6-6-6-6-6-6----|
D|-----------------9----------------7---------------4-4-4-4-4-4-4-4-4----|


Guitar 1:
d|-11----|
A|-11----|
F|-------|
C|-------|
G|-------|
D|-------|

=============================CHORUS 2============================================

d|--------------------------------------------------------------------|
A|--------------------------------------------------------------------|
F|-8-8-8-8-8-8-8-8---------------------------------6-6-6-6-7-7-7-7----|
C|-8-8-8-8-8-8-8-8-9-9-9-9-9-9-9-9-6-6-6-6-6-6-6-6-6-6-6-6-7-7-7-7----| x2
G|-6-6-6-6-6-6-6-6-9-9-9-9-9-9-9-9-6-6-6-6-6-6-6-6-4-4-4-4-5-5-5-5----|
D|-----------------7-7-7-7-7-7-7-7-4-4-4-4-4-4-4-4--------------------|

d|---------------------------------------------------------------------|
A|---------------------------------------------------------------------|
F|------8-8-8-8-8-8---------------------------------6-6-6-6-7-7-7-7----|
C|------8-8-8-8-8-8-9-9-9-9-9-9-9-9-6-6-6-6-6-6-6-6-6-6-6-6-7-7-7-7----|
G|------6-6-6-6-6-6-9-9-9-9-9-9-9-9-6-6-6-6-6-6-6-6-4-4-4-4-5-5-5-5----|
D|------------------7-7-7-7-7-7-7-7-4-4-4-4-4-4-4-4--------------------|

d|--------------------------------------------------------------------|
A|--------------------------------------------------------------------|
F|-8-8-8-8-8-8-8-8---------------------------------6-6-6-6-7-7-7-7----|
C|-8-8-8-8-8-8-8-8-9-9-9-9-9-9-9-9-6-6-6-6-6-6-6-6-6-6-6-6-7-7-7-7----|
G|-6-6-6-6-6-6-6-6-9-9-9-9-9-9-9-9-6-6-6-6-6-6-6-6-4-4-4-4-5-5-5-5----|
D|-----------------7-7-7-7-7-7-7-7-4-4-4-4-4-4-4-4--------------------|


=============================Breakdown============================================

Guitar 2:

d|----------------------------------------------|
A|----------------------------------------------|
F|----------------------------------------------|
C|-4-4-4-4--4--444--444-6-6-6-6--6--333--111----| x2
G|-6-6-6-6--6--666--666-6-6-6-6--6--444--222----|
D|----------------------------------------------|

d|-------------|
A|-------------|
F|-------------|
C|-4-4-4-4\----|
G|-6-6-6-6\----|
D|-------------|

Guitar 1:
Comes in 2nd time

d|----------------------------------------------------------|
A|----------------------------------------------------------|
F|-----------------------------------------<6>--------------|
C|-8-8-8-8--8--888--888-9-9-9-9--9--888--66------8-8-8-8----|
G|----------------------------------------------------------|
D|----------------------------------------------------------|



=============================Solo==========================================================

Guitar 1:

d|----------------------------------------------------------|
A|-------------------14b15-14-12-11-12-11h12p11----11-------|
F|----------11-13-15----------------------------13-13b15----|
C|-11-13-14-------------------------------------------------|
G|----------------------------------------------------------|
D|----------------------------------------------------------|

d|----------------------------------------------------|
A|-/16-t19p16-14-12----12-14-16-t19p16--14--12--------|
F|------------------14--------------------------14----|
C|----------------------------------------------------|
G|----------------------------------------------------|
D|----------------------------------------------------|

d|----------------------------------------------------------------------------|
A|----------------------------------------------------------------------------|
F|--------------------------------------------------------------------<11>----|
C|-16tr-15tr-13tr-11tr-13tr-15tr-16tr-18rt-20tr-16tr-15tr-11-13--11h13--------|
G|----------------------------------------------------------------------------|
D|----------------------------------------------------------------------------|

d|----------------|       d|----------------|
A|-16-14----14----|       A|-18-14----14----|
F|-------15-------|       F|-------15-------|
C|----------------| x8    C|----------------| x4
G|----------------|       G|----------------|
D|----------------|       D|----------------|

d|--------------------------------------------|
A|-23p21----21p20----23p21-20h21--------------|
F|-------22-------22-------------22--10-------|
C|-----------------------------------12b14----|
G|--------------------------------------------|
D|--------------------------------------------|

d|-t18p14p11-t18p14p11-t18p14p11-t18p14p11-t19p14p11-t19p14p11-t19p14p11-t19p14p11----|
A|------------------------------------------------------------------------------------|
F|------------------------------------------------------------------------------------|
C|------------------------------------------------------------------------------------|
G|------------------------------------------------------------------------------------|
D|------------------------------------------------------------------------------------|

d|-t16p14p11-t16p14p11-t16p14p11-t16p14p11-t18p14p11-t18p14p11-t18p14p11-t18p14p11----|
A|------------------------------------------------------------------------------------|
F|------------------------------------------------------------------------------------|
C|------------------------------------------------------------------------------------|
G|------------------------------------------------------------------------------------|
D|------------------------------------------------------------------------------------|

d|------------------------|
A|----------14b15 <14>----|
F|-12b13-10---------------|
C|------------------------|
G|------------------------|
D|------------------------|

PITCH CHANGED BIT: I dont have a pitch changer so Im not sure how right this is, I think 
the minimum you need is a 15 semitone increase in pitch. With which you would play:

d|-/15t17p15t17p15t17p15t17p15--/15t17p15t17p15t17p15t17p15----|
A|-------------------------------------------------------------|
F|-------------------------------------------------------------|
C|-------------------------------------------------------------|
G|-------------------------------------------------------------|
D|-------------------------------------------------------------|

d|-24-22-20-18-17----|
A|-------------------|
F|-------------------|
C|-------------------|
G|-------------------|
D|-------------------|

Then OFF the Pitch Changer:
(This is very rough and probably not even 50% correct, but just so theres something here 
I tried to figure something out)

d|-------------------------------------------------------------|
A|-------------------------------------------------------------|
F|-15-13-12----13-12-------------------------------------------|
C|----------15-------15-13-12-13-15-13-12----------------------|
G|----------------------------------------15-13-12-------14----|
D|-------------------------------------------------15-13-12----|

Guitar 2:

d|--------------------------------------------------------------------|
A|--------------------------------------------------------------------|
F|-------------------------------------------------6-6-6-6-6-6-6-6----|
C|-9-9-9-9-9-9-9-9-9-9-9-9-9-9-9-9-4-4-4-4-4-4-4-4-6-6-6-6-6-6-6-6----|
G|-9-9-9-9-9-9-9-9-9-9-9-9-9-9-9-9-4-4-4-4-4-4-4-4-4-4-4-4-4-4-4-4----|
D|-7-7-7-7-7-7-7-7-7-7-7-7-7-7-7-7-2-2-2-2-2-2-2-2--------------------|

d|---------------------------------------------|
A|---------------------------------------------|
F|-8-8-8-8--8--888-888--8-8-8-8--8--888-888----|
C|-8-8-8-8--8--888-888--8-8-8-8--8--888-888----|
G|-6-6-6-6--6--666-666--6-6-6-6--6--666-666----|
D|---------------------------------------------|#

d|--------------------------------------------------------------------|
A|--------------------------------------------------------------------|
F|-------------------------------------------------6-6-6-6-6-6-6-6----|
C|-9-9-9-9-9-9-9-9-9-9-9-9-9-9-9-9-4-4-4-4-4-4-4-4-6-6-6-6-6-6-6-6----|
G|-9-9-9-9-9-9-9-9-9-9-9-9-9-9-9-9-4-4-4-4-4-4-4-4-4-4-4-4-4-4-4-4----|
D|-7-7-7-7-7-7-7-7-7-7-7-7-7-7-7-7-2-2-2-2-2-2-2-2--------------------|


d|----------------|
A|----------------|
F|-8--------8\----|
C|-8-x64----8\----|                     (I think its 64 times, lost count...)
G|-6--------6\----|
D|----------------|

=============================CHORUS 3==========================================================

Chorus is done once with only vocals and drums, than:

d|-------------------------------------------|
A|-------------------------------------------|
F|-------------------------------------------|
C|-------------------------------------------|
G|-----------6~~~~~~~~~~~~~~~~~~~~~~~~~~~~~~~|
D|-------------------------------------------|
“So give me your hand....”
(Play when he sings "your")

d|--------------------------------------------------------------------|
A|--------------------------------------------------------------------|
F|-8-8-8-8-8-8-8-8---------------------------------6-6-6-6-7-7-7-7----|
C|-8-8-8-8-8-8-8-8-9-9-9-9-9-9-9-9-6-6-6-6-6-6-6-6-6-6-6-6-7-7-7-7----| x2
G|-6-6-6-6-6-6-6-6-9-9-9-9-9-9-9-9-6-6-6-6-6-6-6-6-4-4-4-4-5-5-5-5----|
D|-----------------7-7-7-7-7-7-7-7-4-4-4-4-4-4-4-4--------------------|

d|---------------------------------------------------------------------|
A|---------------------------------------------------------------------|
F|------8-8-8-8-8-8---------------------------------6-6-6-6-7-7-7-7----|
C|------8-8-8-8-8-8-9-9-9-9-9-9-9-9-6-6-6-6-6-6-6-6-6-6-6-6-7-7-7-7----|
G|------6-6-6-6-6-6-9-9-9-9-9-9-9-9-6-6-6-6-6-6-6-6-4-4-4-4-5-5-5-5----|
D|------------------7-7-7-7-7-7-7-7-4-4-4-4-4-4-4-4--------------------|

d|----------------------------------------------------------------------------|
A|----------------------------------------------------------------------------|
F|-8-8-8-8-8-8-8-8---------------------------------6--6--6--7--7--7--8~~8\----|
C|-8-8-8-8-8-8-8-8-9-9-9-9-9-9-9-9-6-6-6-6-6-6-6-6-6--6--6--7--7--7--8~~8\----|
G|-6-6-6-6-6-6-6-6-9-9-9-9-9-9-9-9-6-6-6-6-6-6-6-6-4--4--4--5--5--5--6~~6\----|
D|-----------------7-7-7-7-7-7-7-7-4-4-4-4-4-4-4-4----------------------------|

The End.
Tap to rate this tab
 
# A B C D E F G H I J K L M N O P Q R S T U V W X Y Z